>
 >
Ember

Ember Guitar Tabs

Extol - Ember chords, tabs, tablatures, lyrics

Guitar lessons | Add/correct | Request | Top 50 tabs Artists:  A B C D E F G H I J K L M N O P Q R S T U V W X Y Z 0-9

Ember Guitar Tabs – Extol

CD, Sheet music, Poster

Do you like Ember? Share with your friends now
Tabs
--------------------------------------------------------------------------
                            "EMBER" - Extol
--------------------------------------------------------------------------

Tuning: Standard B
Note: Tune your 6th string down to B, then tune the rest of the strings 
the normal way. Extol does not tune to dropped B as noted on other tabs.        

I was just way too lazy to tab all the palm mutes, hammers, pulls and 
slides. The parts were challenging enough to figure out. If you can get 
through the song, you are good enough to know how to stylize the notes and 
chords to make it sound like the original. Crack your knuckles and get to 
work...Good Luck!

Riff A - Left Guitar - 4x
e|---------------------------------------------------------|
B|---------------------------------------------------------|
G|-------------3---------4-3-0-7-----5---------------------|
D|-----1-----1---4-3-------------0-4---6-------4-0---------|
A|-1-2---3-0-----------------------------5-4-3-------------|
E|-------------------------------------------------4-3-0---|

Riff A - Right Guitar - 2x
e|---------------------------------------------------------|
B|---------------------------------------------------------|
G|---------------8-6-----8-6---------8---------------------|
D|-3-3-4-3-3-6-4-------------9-7---7---9-------7-----------|
A|-------------------------------9-------8-7-6---6---------|
E|-------------------------------------------------7-6-0---|

Riff A - Right Guitar - 2x
e|------------------------------------------------------------------|
B|-------------------------------------10-----8---------------------|
G|--------------10------------11-10---------6---8-------6-----------|
D|-----8------8----11-10------------12----7-------7-6-5---7---------|
A|-8-9---10-7-----------------------------------------------6-5-----|
E|--------------------------------------------------------------0---|

Riff B - Clean Tone - 2x
e|------------------------------------------------------------------------|
B|-------0--------0--------0-------0---------0-------0-------0-------0----|
G|---3--------3--------3-------3---------3-------3-------3-------3--------|
D|-2---2----2---2----2---2---2---2-----1---1---1---1---1---1---1---1------|
A|------------------------------------------------------------------------|
E|------------------------------------------------------------------------|

Riff C - Clean Tone - Verse - 2x
e|----------------0-------------------------------------------------------|
B|-------0-----------------0-------0---------0-------0-------0-------0----|
G|---3--------3--------3-------3---------3-------3-------3-------3--------|
D|-2---2----2---2----2---2---2---2-----1---1---1---1---1---1---1---1------|
A|------------------------------------------------------------------------|
E|------------------------------------------------------------------------|

Riff D - Clean Tone - Verse - 2x
e|---------------------------------------|
B|---------0------0-----------0-------0--|
G|-----3--------3---------2---------2----|
D|---2---2--------------0---0------------|
A|--------------------------------0------|
E|-0----------2-------3------------------|

Riff D - Clean Tone - Verse - 2x
e|---------------------------------------|
B|-------0--------0--------0--------0----|
G|---2--------2--------2--------2--------|
D|-3---3----3---3----3---3----3---3------|
A|---------------------------------------|
E|---------------------------------------|

Riff E - Both w/Fill E - Chorus - 2x (with different endings)
e|------------------------------------------------------------------------|
B|------------------------------------------------------------------------|
G|----------------6--6---6-6-6---2--2---2-2-2---5--5---5-5-5--------------|
D|-2--2---2-2-2---6--6---6-6-6---2--2---2-2-2---5--5---5-5-5---3--3--3-3-3|
A|-2--2---2-2-2---4--4---4-4-4---0--0---0-0-0---3--3---3-3-3---3--3--3-3-3|
E|-0--0---0-0-0------------------------------------------------1--1--1-1-1|

e|------------------------------------------------------------------------|
B|------------------------------------------------------------------------|
G|------------------------------6--6--6-6-6--2--2--2-2-2--5--5--5-5-5-----|
D|-3--3---3-3-3---2--2--2-2-2---6--6--6-6-6--2--2--2-2-2--5--5--5-5-5-----|
A|-3--3---3-3-3---2--2--2-2-2---4--4--4-4-4--0--0--0-0-0--3--3--3-3-3-----|
E|-1--1---1-1-1---0--0--0-0-0---------------------------------------------|

                       *harmonics                                      2x
e|---------------------------------|--------------------------------------|
B|---------------------5-5-5-------|--------------------------------------|
G|---------------------5-5-5-------|--------------------------------------|
D|-3--3--3-3-3---3--3--------------|--3--3---3-3-3----3--3---3-3-3--------|
A|-3--3--3-3-3---3--3--------------|--3--3---3-3-3----3--3---3-3-3--------|
E|-1--1--1-1-1---1--1--------------|--1--1---1-1-1----1--1---1-1-1--------|

Fill E (break for harmonics, and play extended ending)
e|---------------------------------------------------------------|
B|-11-11-12-12-12-11-11-12-12-12-12-12-10-12-12-12-12-10-12-12---|
G|---------------------------------------------------------------|
D|-8--8--9--9--9--8--8--9--9--9--9--9--7--9--9--9--9--7--9--9----|
A|---------------------------------------------------------------|
E|---------------------------------------------------------------|

e|-----------------------------------|
B|-12-12-13-13-13---12-12-13-13-13---|
G|-----------------------------------|
D|-9--9--10-10-10---9--9--10-10-10---|
A|-----------------------------------|
E|-----------------------------------|

Riff F - Left Guitar - 2x
e|------------------------------------------------------------------------|
B|------------------------------------------------------------------------|
G|------------------------------------------------------------------------|
D|---------7-7-7-7-5-5-5-5-0-0-0-0-4-4-4-4--------------------------------|
A|-----------------------------------------5-5-5-5-2-2-2-2----------------|
E|-3-3-3-3-------------------------------------------------0-0-0-0-0-0-0-0|

e|------------------------------------------------------------------------|
B|------------------------------------------------------------------------|
G|------------------------------------------------------------------------|
D|---------------------------------------------------------7-7-7-7-5-5-5-5|
A|-2-2-2-2-2-2-2-2-3-3-3-3-3-3-3-3-3-3-3-3-3-3-3-3------------------------|
E|-------------------------------------------------3-3-3-3----------------|

e|------------------------------------------------------------------------|
B|------------------------------------------------------------------------|
G|------------------------------------------------------------------------|
D|-0-0-0-0-4-4-4-4--------------------------------------------------------|
A|-----------------5-5-5-5-2-2-2-2-----------------2-2-2-2-2-2-2-2--------|
E|---------------------------------0-0-0-0-0-0-0-0-----------------1-1-1-1|

e|------------------|
B|------------------|
G|------------------|
D|------------------|
A|---------3-3-3-3--|
E|-1-1-1-1----------|

e|------------------------------------------------------------------------|
B|------------------------------------------------------------------------|
G|-7-7-7-7-7-7-7-7-4-4-4-4-4-4-4-4----------------------------------------|
D|---------------------------------7-7-7-7-7-7-7-7-5-5-5-5-4-4-4-4-4-4-4-4|
A|------------------------------------------------------------------------|
E|------------------------------------------------------------------------|

e|------------------------------------------------------------------------|
B|------------------------------------------------------------------------|
G|-------------------------------------------------7-7-7-7-7-7-7-7-4-4-4-4|
D|-5-5-5-5-5-5-5-5--------------------------------------------------------|
A|-----------------7-7-7-7-7-7-7-7-5-5-5-5-5-5-5-5------------------------|
E|------------------------------------------------------------------------|

e|------------------------------------------------------------------------|
B|------------------------------------------------------------------------|
G|-4-4-4-4----------------------------------------------------------------|
D|---------7-7-7-7-7-7-7-7-5-5-5-5-4-4-4-4-4-4-4-4-5-5-5-5-5-5-5-5-7-7-7-7|
A|------------------------------------------------------------------------|
E|------------------------------------------------------------------------|

e|--------------------------|
B|--------------------------|
G|--------------------------|
D|-7-7-7-7-7-7-7-7-7-7-7-7--|
A|--------------------------|
E|--------------------------|

Repeat Riff E w/Fill E
Repeat Riff A (Right Guitar plays each variation once)

Riff G - Left Guitar (Right Guitar plays only root notes) - 6x
e|------------------------------------------------------------------------|
B|------------------------------------------------------------------------|
G|-----4-4-4-----4-4-4-----4-4-4-----4-4-4-----4-4-4-----2-2-2-----4-4-4--|
D|---------------------------------------------------0-0------------------|
A|-0-0-------0-0-------0-0-------0-0-------3-3-----------------3-3--------|
E|------------------------------------------------------------------------|

e|------------|
B|------------|
G|-----2-2-2--|
D|-0-0--------|
A|------------|
E|------------|

Riff G - Right Guitar - 4x
e|------------------------------------------------------------------------|
B|------------------------------------------------------------------------|
G|-----9-9-9-----8-8-8-----9-9-9-----8-8-8-----7-7-7-----7-7-7-----7-7-7--|
D|-----6-6-6-----4-4-4-----6-6-6-----4-4-4-----5-5-5-0-0-4-4-4-----4-4-4--|
A|-0-0-------0-0-------0-0-------0-0-------3-3-----------------3-3--------|
E|------------------------------------------------------------------------|

e|------------|
B|------------|
G|-----7-7-7--|
D|-0-0-4-4-4--|
A|------------|
E|------------|

Riff H - Both w/Violin - 2x
e|------------------------------------------------------------|
B|------------------------------------------------------------|
G|-11---11---13----7---9---11---11----------------------------|
D|-11---10---13----9---9---11---10----7--6--4--6--7-----6-----|
A|-9----9----11----9---7---9----9-----5--5--5--5--4-----4-----|
E|-----------------7---0--------------------------------------|

Repeat Riff B
Repeat Riff C
Repeat Riff D
Repeat Riff F

Riff I - Both w/Fill I & J (Riff I continues till end and fades out)
e|------------------------------------------------------------------------|
B|------------------------------------------------------------------------|
G|------------------------------------------------------------------------|
D|-4-4-4-4-4-4-4-4-4-4-4-4-4-4-4-4-6-6-6-6-6-6-6-6-9-9-9-9-2-2-2-2-4-4-4-4|
A|-4-4-4-4-4-4-4-4-3-3-3-3-3-3-3-3-6-6-6-6-6-6-6-6-9-9-9-9-2-2-2-2-4-4-4-4|
E|-2-2-2-2-2-2-2-2-2-2-2-2-2-2-2-2-4-4-4-4-4-4-4-4-7-7-7-7-0-0-0-0-2-2-2-2|

e|----------------------------------------------------------|
B|----------------------------------------------------------|
G|----------------------------------------------------------|
D|-4-4-4-4-4-4-4-4-4-4-4-4-7-7-6-6-4-4-6-6-7-7-7-7-6-6-6-6--|
A|-4-4-4-4-3-3-3-3-3-3-3-3-5-5-5-5-5-5-5-5-4-4-4-4-4-4-4-4--|
E|-2-2-2-2-2-2-2-2-2-2-2-2----------------------------------|

Fill I - 2x
e|------------------------------------------------------------------------|
B|------------------------------------------------------------------------|
G|-14-14-14-14-13-13-14-14-13-13-13-13-13-13-13-13-13-13-13-13-8-8-8-8----|
D|------------------------------------------------------------------------|
A|-12-12-12-12-11-11-12-12-11-11-11-11-11-11-11-11-11-11-11-11-6-6-6-6----|
E|------------------------------------------------------------------------|

e|------------------------------------------------------------------------|
B|------------------------------------------------------------------------|
G|-7-7-14-14-13-13-16-16-14-14-14-14-13-13-14-14-13-13-13-13-13-13-13-13--|
D|------------------------------------------------------------------------|
A|-5-5-12-12-11-11-14-14-12-12-12-12-11-11-12-12-11-11-11-11-11-11-11-11--|
E|------------------------------------------------------------------------|

e|-------------------------------------------|
B|-------------------------------------------|
G|-11-11-9-9-7-7-9-9-10-10-10-10-10-10-10-10-|
D|-------------------------------------------|
A|-9--9--7-7-5-5-7-7-8--8--8--8--8--8--8--8--|
E|-------------------------------------------|

Fill J
e|-9--9--9--9--9--9--9--9--9-9-9-9-9--9--9--9--11-11-11-11-11-11-11-11----|
B|-10-10-10-10-10-10-10-10-9-9-9-9-10-10-10-10-9--9--9--9--9--9--9--9-----|
G|------------------------------------------------------------------------|
D|------------------------------------------------------------------------|
A|------------------------------------------------------------------------|
E|------------------------------------------------------------------------|

e|-11-11-11-11-11-11-11-11-8-8-8-8-8-8-8-8--------------------------------|
G|-9--9--9--9--9--9--9--9--9-9-9-9-9-9-9-9-9-9-9-9-9-9-9-9-10-10-10-10----|
D|-----------------------------------------8-8-8-8-8-8-8-8-7--7--7--7-----|
A|------------------------------------------------------------------------|
E|------------------------------------------------------------------------|

e|---------------------------------9--9--9--9--9--9--9--9--9-9-9-9--------|
B|-10-10-10-10-9-9-9-9-12-12-12-12-10-10-10-10-10-10-10-10-9-9-9-9--------|
G|-7--7--7--7--7-7-7-7-7--7--7--7-----------------------------------------|
D|------------------------------------------------------------------------|
A|------------------------------------------------------------------------|
E|------------------------------------------------------------------------|

e|-9--9--9--9--11-11-11-11-11-11-11-11-11-11-11-11-11-11-11-11------------|
B|-10-10-10-10-9--9--9--9--9--9--9--9--9--9--9--9--9--9--9--9--10-10-10-10|
G|-------------------------------------------------------------11-11-11-11|
D|------------------------------------------------------------------------|
A|------------------------------------------------------------------------|
E|------------------------------------------------------------------------|

e|------------------------------------------------------------------------|
B|-9-9-9-9-10-10-10-10-9-9-9-9-10-10-10-10-10-10-10-10-9--9--9--9--9--9---|
G|-9-9-9-9-7--7--7--7--9-9-9-9-10-10-10-10-10-10-10-10-10-10-10-10-10-10--|
D|------------------------------------------------------------------------|
A|------------------------------------------------------------------------|
E|------------------------------------------------------------------------|


| /  slide up
| \  slide down
| h  hammer-on
| p  pull-off
| ~  vibrato
| +  harmonic
| x  Mute note
===========================================================================





Comments


Popular Extol tabs & chords
Celestial Completion Tabs
Emancipation Tabs
Emancipation Intro Tabs
Grace For Succession Tabs
Grace For Succession 1 Tabs
Nihilism 2002 Tabs
Paradigms Tabs
Paradigms Intro Tabs
Psychopath Tabs
Scrape The Surface Tabs


Song lyrics



↑ Back to top | Tablatures and chords are parodies/interpretations of the original songs. You may use it for private study, scholarship, research or language learning purposes only
© 2014 AZChords.com Contact us | Privacy policy | DMCA | Add/correct tabs | Request tabs | Top 50 tabs