» » »

Extol, Blood Red Cover Tabs (ver.1)

Artists:  A B C D E F G H I J K L M N O P Q R S T U V W X Y Z # 

Blood Red Cover Tabs (ver.1)

Extol Tabs
 Rating:
4/5 (4 votes)
Blood Red Cover lessons Tabs too difficult? Try these video lessons and learn fast
1
                ---------------------------------------------------------------------------
                       "Blood Red Cover" - Extol
---------------------------------------------------------------------------

Tuning: Standard D
Note: Tune your 6th string to D, then tune the rest of the strings the 
normal way. Extol does not tune to dropped D as noted on other tabs.    

I was just way too lazy to tab all the palm mutes, hammers, pulls and 
slides. The parts were challenging enough to figure out. If you can get 
through the song, you are good enough to know how to stylize the notes
and chords to make it sound like the original. Crack your knuckles and
get to work...Good Luck!

Riff A                         Riff A Fill
e|------------------------------------------------------------------------|
B|--------------------------------------------9---10----------------------|
G|----------------------------------7-9---7----------------7-9---7--------|
D|-2---8---5-----2---10--7----6-6-6-----5---7---8----7-7-6-----5---6-5-5-5|
A|-2---8---5-----2---8---5------------------------------------------------|
E|-0---6---3-----0---6---3------------------------------------------------|

e|-----0---------------------------------------------------------0--------|
B|---6---6----------------------9---10-------------------------6---6------|
G|-7-------7--------7-9---7------------------7-9---7---------7-------7----|
D|------------6-6-6-----5---7-7---8----7-7-6-----5---6-5-5-5--------------|
A|------------------------------------------------------------------------|
E|------------------------------------------------------------------------|

Riff B
e|------------------------------------------------------------------------|
B|------------------------------------------------------------------------|
G|-----------------4---6-------------------4---6--------------------5-----|
D|-----5---3-5---4---4---4-----5---3-5---4---4---4------8---6-8---5---5---|
A|---3---1-----2-------------3---1-----2--------------6---4-----3---------|
E|-1-----------------------1------------------------4---------------------|

e|-------------------------------|
B|-4-------------------------3---|    Riff C - play opening chords in 
G|---5-------------------5-------|             repetitive strokes
D|----------8---6-8----5---5-----|
A|--------6---4------3-----------|
E|------4------------------------|

Riff D1 - Left Guitar
e|--------------------|
B|--------------------|
G|--------------------|
D|-2---3----5---6-----|
A|-0---0----3---4-----|
E|--------------------|

Riff D1 Fill
e|--------------------------------------------------------------------|
B|-----------------9---10-----------------9---10-----------------9----|
G|-------7-9---7----------------7-9---7----------------7-9---7--------| x2
D|-6-6-6-----5---7---7----6-6-6-----5---7---7----6-6-6-----5---7------|
A|--------------------------------------------------------------------|
E|--------------------------------------------------------------------|

Riff D2 - Right Guitar
e|------------------------------|
B|------------------------------|
G|-2-2-2--5-5-5--7-7-7--8-8-8---|
D|-2-2-2--3-3-3--5-5-5--6-6-6---|
A|-0-0-0--0-0-0--3-3-3--4-4-4---|
E|------------------------------|

Riff D2 - Left Guitar
e|---------10-------------10-------------10---------------11--------|
B|-----8------8-------8------8-------8------8--------9-------9------|
G|---9---9------9---9---9------9---9---9------9---10---10------10---|
D|-7--------------7--------------7--------------8-------------------|
A|------------------------------------------------------------------|
E|------------------------------------------------------------------|

e|---------10-------------10-------------10--------------9--------|
B|-----8------8-------8------8-------8------8-------7------7------|
G|---9---9------9---9---9------9---9---9------9---8---8------8----|  x2
D|-7--------------7--------------7--------------6-----------------|
A|----------------------------------------------------------------|
E|----------------------------------------------------------------|

Repeat Riff C with Riff A Fill

Riff E
e|------------------------------------------------------------------------|
B|------------------------------------------------------------------------|
G|-4--4--4-4--4--4--4-4-4-4--4--4--4-4--4--4--4-4-4-4--4--4--4-4--4--4----|
D|-2--2--2-2--2--2--2-2-2-2--2--2--2-2--2--2--2-2-2-2--2--2--2-2--2--2----|
A|-0--0--0-0--0--0--0-0-0-0--0--0--0-0--0--0--0-0-0-0--3--3--3-3--3--3----|
E|------------------------------------------------------------------------|

e|-----------|--------|
B|-----------|---3----|
G|-4-4-4-4---|---5----|
D|-2-2-2-2---|---5----|
A|-3-3-3-3---|---3----|
E|-----------|--------|

Riff F - Rhythm Under Solo (strum more like chords)
e|-------------------------0-----------------------------0----------------|
B|---------------------------3-----------------------------3--------------|
G|-----4-----4-----4-----4-----4-----4-----4-----4-----4-----4-----4-----4|
D|---2-----2-----2-----2-----------2-----2-----2-----2-----------2-----2--|
A|-0-----0-----0-----0-----------0-----0-----0-----0-----------3-----3----|
E|------------------------------------------------------------------------|

e|-------------0-----------------------------0------|
B|---------------3-----------------------------3----|
G|-----4-----4-----4-----4-----4-----4-----4-----4--|
D|---2-----2-----------2-----2-----2-----2----------|
A|-3-----3-----------3-----3-----3-----3------------|
E|--------------------------------------------------|

Solo Over Riff F
e|------------------------------------------10-------12-------------------|
B|----------------------------12--------13------8-------13-12-13-15--12-13|
G|-7--5--4--5--7--5--4--5--9------7--5------------------------------------|
D|------------------------------------------------------------------------|
A|------------------------------------------------------------------------|
E|------------------------------------------------------------------------|

e|----------12-15----------8---10---12--------12-15----------8--10--------|
B|-8---8-10-------12-10-8----8----8------8-10-------12-10-8---------------|
G|------------------------------------------------------------------------|
D|------------------------------------------------------------------------|
A|------------------------------------------------------------------------|
E|------------------------------------------------------------------------|

Riff G - Left Guitar   Riff G - Right Guitar
e|-------------------|----------------------|
B|-------------------|----------------------|
G|-------------------|-2--5---7--8----------|
D|-2--3---5--6-------|-2--3---5--6----------|
A|-0--0---3--4-------|-0--0---3--4----------|
E|-------------------|----------------------|

Riff G - Middle Guitar     half bend
e|---------12--------15----12------15----------------12------15----13-----|
B|------10----------------------------13----------10------------------11-9|
G|-7-9---------9-12-----12---------------12--7-9--------9-12----12--------|
D|------------------------------------------------------------------------|
A|------------------------------------------------------------------------|
E|------------------------------------------------------------------------|

Riff H - Left Guitar
e|------------------------------------------------------------------------|
B|------------------------------------------------------------------------|
G|-2-2-2-2-2-2-2-2-2-8-8-8-8-8-8-8-5-5-5-5-5-5-5-5-------------------8-8-8|
D|-2-2-2-2-2-2-2-2-2-8-8-8-8-8-8-8-5-5-5-5-5-5-5-5-5-5-5-5-5-5-5-5-5-8-8-8|
A|-0-0-0-0-0-0-0-0-0-6-6-6-6-6-6-6-3-3-3-3-3-3-3-3-5-5-5-5-5-5-5-5-5-6-6-6|
E|-------------------6-6-6-6-6-6-6-3-3-3-3-3-3-3-3-3-3-3-3-3-3-3-3-3-6-6-6|

e|----------------------|
B|----------------------|
G|-8-8-8-8-5-5-5-5-5-5--|
D|-8-8-8-8-5-5-5-5-5-5--|
A|-6-6-6-6-3-3-3-3-3-3--|
E|-6-6-6-6-3-3-3-3-3-3--|

Riff H - Right Guitar
e|-9-9-9-9-9-9-9-9-9-6-6-6-6-6-6-6-8-8-8-8-8-8-8-8-7-7-7-7-7-7-7-7-7-6-6-6|
B|101010101010101010-6-6-6-6-6-6-6-8-8-8-8-8-8-8-8-8-8-8-8-8-8-8-8-8-8-8-8|
G|-9-9-9-9-9-9-9-9-9-7-7-7-7-7-7-7-9-9-9-9-9-9-9-9-7-7-7-7-7-7-7-7-7-7-7-7|
D|------------------------------------------------------------------------|
A|------------------------------------------------------------------------|
E|------------------------------------------------------------------------|

e|-6-6-6-6-8-8-8-8-8-8--|
B|-8-8-8-8-8-8-8-8-8-8--|
G|-7-7-7-7-9-9-9-9-9-9--|
D|----------------------|
A|----------------------|
E|----------------------|

Repeat Riff C 2x
Repeat D2 - Left Guitar with Right Guitar Chords
End


| /  slide up
| \  slide down
| h  hammer-on
| p  pull-off
| ~  vibrato
| +  harmonic
| x  Mute note
============================================================================
            
Submit corrections

comments powered by Disqus
↑ Back to top | Extol Tabs for Blood Red Cover. Lyrics for acoustic guitar and electric guitar. 1 Tablatures and chords are parodies/interpretations of the original songs. You may use it for private study, scholarship, research or language learning purposes only