» » »

Extol, Aperture Tabs (ver.1)

Artists:  A B C D E F G H I J K L M N O P Q R S T U V W X Y Z # 

Aperture Tabs (ver.1)

Extol Tabs
 Rating:
3.7/5 (6 votes)
Aperture lessons Tabs too difficult? Try these video lessons and learn fast
1
                ---------------------------------------------------------------------------
                       "APERTURE" - Extol
---------------------------------------------------------------------------

Tuning: Standard D
Note: Tune your 6th string to D, then tune the rest of the strings the 
normal way. Extol does not tune to dropped D as noted on other tabs.    

I don't have much experience with classical guitar and this song was
actually a pain to figure out. This is the easy version...its not all
the correct notes and chords but it will get you through the song.

Riff A
e|------0--------0--------0---12---0----0---------0-----0---------0-------|
B|----0---0----0---0----0---0----0---0----0---------0-----0---------0-----|
G|-13-------14-------16---------------------9---9-----9-----9---9-----9---|
D|----------------------------0---------------9---------------9---------9-|
A|------------------------------------------------------------------------|
E|-12-------14-------12-----------------8---------8-----8---------8-------|

e|------0--------0--------0---12---0--------0------------------|
B|----0---0----0---0----0---0----0---0--3------5---------------|
G|-13-------14-------16-------------------0--------------------|
D|----------------------------0-------------------5-5--5-5--5--|
A|--------------------------------------2------3--3-3--3-3--3--|
E|-12-------14-------12----------------------------------------|

Riff B
e|-0---------0-----------0--------0------------0------------------------|
B|---0---------0-------0---0----0---0--8-----8---8-----7-8-----7-----7--|
G|-----9---------9--11-------11------------9-------9-------9-----7------|
D|-------9-------------------------------9-----------9-------9-----7----|
A|-------------------------------------7---------------7-------5-----5--|
E|-8-------8--------10-------10-----------------------------------------|

e|-0---------0-----------0--------0------------0------------------------|
B|---0---------0-------0---0----0---0--8-----8---8-----7-8-----7-----7--|
G|-----9---------9--11-------11------------9-------9-------9-----7------|
D|-------9-------------------------------9-----------9-------9-----7----|
A|-------------------------------------7---------------7-------5-----5--|
E|-8-------8--------10-------10-----------------------------------------|

e|-0---------0-----------0--------0---------0--------0-------0-------0----|
B|---0---------0-------0---0----0---0-----0---0----0---0---0---0---0---0--|
G|-----9---------9--11-------11--------12-------11-------9----------------|
D|-------9----------------------------------------------------------------|
A|------------------------------------------------------------------------|
E|-8-------8--------10-------10--------12-------11-------9-------9--------|

e|-----0-------0----0---------0-----------0--------0-----|
B|---0---0---0---0----0---------0-------0---0--------0---|
G|-9--------------------9---------9--11-------11---------|
D|------------------------9----------------------0-------|
A|-------------------------------------------------------|
E|-9-------9--------8-------8--------10------------------|

End
e|------0--------0--------0--------0--------0--------0--------0--------0--|
B|----0---0--------0--------0--------0--------0--------0--------0--------0|
G|-11-------11-------11-------11-------11-------11-------11-------11------|
D|-------------0--------0--------0--------0--------0--------0--------0----|
A|------------------------------------------------------------------------|
E|-10---------------------------------------------------------------------|

e|--0------|
B|--0------|
G|--4------|
D|--2------|
A|--2------|
E|--0------|


| /  slide up
| \  slide down
| h  hammer-on
| p  pull-off
| ~  vibrato
| +  harmonic
| x  Mute note
===========================================================================
            
Submit corrections

comments powered by Disqus
↑ Back to top | Extol Tabs for Aperture. Lyrics for acoustic guitar and electric guitar. 1 Tablatures and chords are parodies/interpretations of the original songs. You may use it for private study, scholarship, research or language learning purposes only