>
 >
And I Watch

And I Watch Guitar Tabs

Extol - And I Watch chords, tabs, tablatures, lyrics

Guitar lessons | Add/correct | Request | Top 50 tabs Artists:  A B C D E F G H I J K L M N O P Q R S T U V W X Y Z 0-9

And I Watch Guitar Tabs – Extol

CD, Sheet music, Poster

Do you like And I Watch? Share with your friends now
TabsTabs v2
--------------------------------------------------------------------------
                         "And I Watch" - Extol
--------------------------------------------------------------------------

Tuning: Standard B
Note: Tune your 6th string down to B, then tune the rest of the strings 
the normal way. Extol does not tune to dropped B as noted on other tabs.        

I was just way too lazy to tab all the palm mutes, hammers, pulls and 
slides. The parts were challenging enough to figure out. If you can get 
through the song, you are good enough to know how to stylize the notes and 
chords to make it sound like the original. Crack your knuckles and get to 
work...Good Luck!

Riff A - Intro - Left Guitar
e|------------------------------------------------------------------------|
B|------------------------------------------------------------------------|
G|------------------------------------------------------------------------|
D|------------------------------------2-2-2-2-2-2-2-2---------------------|
A|-5----6---3--3--3-------------------3-3-3-3-3-3-3-3---5----6---3--3--3--|
E|-3----4---1--1--1--0-0-0-0-0-0-0-0--------------------3----4---1--1--1--|

e|------------------------------------------------------------------------|
B|------------------------------------------------------------------------|
G|------------------------------------------------------------------------|
D|------------------------------------------------------------------------|
A|-----------------3-3-3-3-2-2-2-2---5----6---3--3--3---------------------|
E|-0-0-0-0-2-2-2-2-5-5-5-5-4-4-4-4---3----4---1--1--1--0-0-0-0-0-0-0-0----|

e|------------------------------------------------------------------------|
B|------------------------------------------------------------------------|
G|------------------------------------------------------------------------|
D|-2-2-2-2-2-2-2----------------------------------------------------------|
A|-3-3-3-3-3-3-3---5----6---3--3--3--------------------------3-3-3-3-3-3--|
E|-----------------3----4---1--1--1--0-0-0-0-0-0-2-2-2-2-2-2-5-5-5-5-5-5--|

Riff A - Intro - Right Guitar
e|------------------------------------------------------------------------|
B|------------------------------------------------------------------------|
G|------------------------------------------------------------------------|
D|------------------------------------------------------------------------|
A|-5----6---3--3--3--3-3-3-3-2-2-2-2--6-6-6-6-6-6-6-6---5----6---3--3--3--|
E|-3----4---1--1--1-------------------------------------3----4---1--1--1--|

e|------------------------------------------------------------------------|
B|------------------------------------------------------------------------|
G|------------------------------------------------------------------------|
D|------------------------------------------------------------------------|
A|-----------------3-3-3-3-2-2-2-2---5----6---3--3--3--3-3-3-3-2-2-2-2----|
E|-0-0-0-0-2-2-2-2-------------------3----4---1--1--1---------------------|

e|------------------------------------------------------------------------|
B|------------------------------------------------------------------------|
G|------------------------------------------------------------------------|
D|------------------------------------------------------------------------|
A|-6-6-6-6-6-6-6---5----6---3--3--3--------------------------3-3-3-3-3-3--|
E|-----------------3----4---1--1--1--0-0-0-0-0-0-2-2-2-2-2-2--------------|

Fill A
e|----------------|
B|----------------|
G|---7-8-7--------|
D|-5-------6------|
A|----------------|
E|----------------|

Riff B - Both Guitars with Fill B
e|------------------------------------------------------------------------|
B|------------------------------------------------------------------------|
G|------------------------------------------------------------------------|
D|-------------------------------------------------------3----------------|
A|--------------7---3----------------7---5---4---------5------------------|
E|-4-4-4-4-4-0---------4-4-4-4-4-0---------------1---3------4-4-4-4-4-0---|

e|------------------------------------------------------------------------|
B|------------------------------------------------------------------------|
G|------------------------------------------------------------------------|
D|------------------------------------------3----6-------8----------------|
A|-7---3----------------7---5---4---------5------3-------5----------------|
E|--------4-4-4-4-4-0---------------1---3--------4-------6----------------|

Fill B
e|------------------------------------------------------------------------|
B|------------------------------------------------------------------------|
G|------------------------------------------------------------------------|
D|----6---2---5--4--4-5-4--2-------6---2--5--4--4-5-4--2--2---2--0--------|
A|-----------------------------2------------------------------------3--5--|
E|-0----------------------------------------------------------------------|

e|------------------------------------------------------------------------|
B|------------------------------------------------------------------------|
G|------------------------------------------------------------------------|
D|-0--3-----6---2---5--4--4-5-4--2-----6---2--5--4--4-5-4--2--2---2--0----|
A|----------------------------------2-----------------------------------3-|
E|-------0----------------------------------------------------------------|

e|--------------------|
B|--------------------|
G|--------------------|
D|----0--3------------|
A|-5---------3---5----|
E|--------------------|

Riff C - Verse - Left Guitar - 2x
e|------------------------------------------------------------------------|
B|------------------------------------------------------------------------|
G|------------------------------------------------------------------------|
D|---------------------------7-7-7-7-7-7--5-5-5-5-5-5--4-4-4-4-4-4--4-4-4-|
A|-3-3-3-3-3-3--3-3-3-3-3-3-----------------------------------------------|
E|------------------------------------------------------------------------|

e|------------------------------------------------------------------------|
B|------------------------------------------------------------------------|
G|------------------------------------------------------------------------|
D|-4-4-4--4-4-4-4-4-4-----------------------------------7-7-7-7-7-7--5-5-5|
A|---------------------3-5-6--3-3-3-3-3-3--3-3-3-3-3-3--------------------|
E|------------------------------------------------------------------------|
                                    first ending
e|---------------------------------|----------------------------|
B|---------------------------------|----------------------------|
G|---------------------------------|----------------------------|
D|-5-5-5--4-4-4-4-4-4--4-4-4-4-4-4-|----------------------------|
A|---------------------------------|----------------------------|
E|---------------------------------|-4-4-4-4-4-4--6-6-6-6-6-6---|
second ending
e|--------------------|
B|--------------------|
G|--------------------|
D|-6-6-6-6-6-6---8----|
A|--------------------|
E|--------------------|

Riff C - Verse - Right Guitar - 4x
e|------------------------------------------------------------------------|
B|-8-8-8-8-8-8------------------------------------------------------------|
G|--------------8-8-8-8-8-8--5-5-5-5-5-5----------------------------7-7-7-|
D|----------------------------------------8-8-8-8-8-8--7-7-7-7-7-7--------|
A|------------------------------------------------------------------------|
E|------------------------------------------------------------------------|

e|------------------------------------------------------------------------|
B|----------------------------8-8-8-8-8-8---------------------------------|
G|-7-7-7--7-7-7-7-7-7--5-7-8---------------8-8-8-8-8-8--5-5-5-5-5-5-------|
D|-------------------------------------------------------------------8-8-8|
A|------------------------------------------------------------------------|
E|------------------------------------------------------------------------|

e|---------------------------------------------------|
B|---------------------------------------------------|
G|---------------------7-7-7-7-7-7-------------------|
D|-8-8-8--7-7-7-7-7-7---------------6-6-6-6-6-6--8---|
A|---------------------------------------------------|
E|---------------------------------------------------|

Riff D - Chorus - Left Guitar with Fill D
e|------------------------------------------------------------------------|
B|------------------------------------------------------------------------|
G|----------------------------------------8--8----------------------------|
D|----2-2-2-2-2---------3-3-3-3-3---------6--6-----2-2-2-2-2--------3-3-3-|
A|-0-------------3-5-0-------------3-5-0--4--4--0-------------3-5-0-------|
E|------------------------------------------------------------------------|
               first ending                second ending
e|---------------------------------------|--------------------------------|
B|---------------------------------------|--------------------------------|
G|-------------8-8-8-8-8-8--5-5-5-5-5-5--|--------------------------------|
D|-3-3---------6-6-6-6-6-6--3-3-3-3-3-3--|--------------------------------|
A|------3-5-0--4-4-4-4-4-4--1-1-1-1-1-1--|-6-6-6-6-6-6-3-3-3-3-3-3-5-5-5--|
E|---------------------------------------|-4-4-4-4-4-4-1-1-1-1-1-1-3-3-3--|

e|----------------------------------------------|
B|----------------------------------------------|
G|----------------------------------------------|
D|----------------------------------------------|
A|-5-5-5-5-5-5-5-5-5-5-5-5-5-5-5--5----3-5-6----|
E|-3-3-3-3-3-3-3-3-3-3-3-3-3-3-3--3-------------|

Riff D - Chorus - Right Guitar with Fill D
e|------------------------------------------------------------------------|
B|------------------------------------------------------------------------|
G|----------------------------------------8--8----------------------------|
D|----2-2-2-2-2---------3-3-3-3-3---------6--6-----2-2-2-2-2--------3-3-3-|
A|-0-------------3-5-0-------------3-5-0--4--4--0-------------3-5-0-------|
E|------------------------------------------------------------------------|
               first ending                second ending
e|---------------------------------------|--------------------------------|
B|---------------------------------------|--------------------------------|
G|-------------5-5-5-5-5-5--5-5-5-5-5-5--|--------------------------------|
D|-3-3---------3-3-3-3-3-3--3-3-3-3-3-3--|--------------------------------|
A|------3-5-0----------------------------|-6-6-6-6-6-6-3-3-3-3-3-3-5-5-5--|
E|---------------------------------------|-4-4-4-4-4-4-1-1-1-1-1-1-3-3-3--|

e|----------------------------------------------|
B|----------------------------------------------|
G|-------------------------------------5-7-8----|
D|----------------------------------------------|
A|-5-5-5-5-5-5-5-5-5-5-5-5-5-5-5--5-------------|
E|-3-3-3-3-3-3-3-3-3-3-3-3-3-3-3--3-------------|

Fill D
e|------------------------------------------------------------------------|
B|------------------------------------------------------------------------|
G|-5-----8---5-----7---5-----4-----5---4-----7---4----0-1-4-0-1-0-4-7-----|
D|---5-6---5---5-6---5---5-6---5-6---5---5-6---5---5----------------------|
A|------------------------------------------------------------------------|
E|------------------------------------------------------------------------|

Repeat Riff C - 3x
Repeat Riff D with Fill D - once as before, cutting end part early

Riff D - Right Guitar variation
e|------------------------------------------------------------------------|
B|------------------------------------------------------------------------|
G|----------------------5-5-5-5-5---------8--8----------------------5-5-5-|
D|----6-6-6-6-6--5-7---------------2-3----6--6-----6-6-6-6-6--5-7---------|
A|-0-----------------0-----------------0--4--4--0-----------------0-------|
E|------------------------------------------------------------------------|
               first ending                second ending
e|---------------------------------------|--------------------------------|
B|---------------------------------------|--------------------------------|
G|-5-5---------5-5-5-5-5-5--5-5-5-5-5-5--|--------------------------------|
D|------2-3----3-3-3-3-3-3--3-3-3-3-3-3--|--------------------------------|
A|----------0----------------------------|-6-6-6-6-6-6-3-3-3-3-3-3-5-5-5--|
E|---------------------------------------|-4-4-4-4-4-4-1-1-1-1-1-1-3-3-3--|

e|----------------------------------------------|
B|----------------------------------------------|
G|-------------------------------------5-7-8----|
D|----------------------------------------------|
A|-5-5-5-5-5-5-5-5-5-5-5-5-5-5-5--5-------------|
E|-3-3-3-3-3-3-3-3-3-3-3-3-3-3-3--3-------------|

Repeat Riff B with Fill B

Riff E - Both Guitars - 4x (Right G. does alt. notes when singing starts)
e|------------------------------------------------------------------------|
B|------------------------------------------------------------------------|
G|----------------4--4--6-6-6-----------------4--4-(6-8-9--11-8)----------|
D|-2--4-4-4-0--4--4--4--6-6-6--2--4-4-4-0--4--4--4--7-6-------4---1010----|
A|-2-----------4--1--2--4-3-4--2-----------4--1--2------4---2-----8-8-----|
E|-0-----------2---------------0-----------2--------------0-----0-6-6--0-0|

e|--------------------|
B|--------------------|
G|--------------------|
D|-------10-10--------|
A|-------8--8---------|
E|-0--0--6--6--0-0-0--|

Riff F - Solo Riff - 2x
e|-------------------------------------------------------------------|
B|-------------------------------------------------------------------|
G|-------9---4--5---------9----------------------9---4--5------------|
D|-2-----9---4--5----2----9---9----7---8---2-----9---4--5----8----6--|
A|-2-----7---2--3----2----7---9----7---8---2-----7---2--3----8----6--|
E|-0-----------------0--------7----5---6---0-----------------6----4--|

Solo - Guitar 1 (*=half bend up and back down)
   *                  *                  *                  
e|------------------------------------------------------------------------|
B|-7------------------7------------------7----------------------6--8------|
G|-----7--9---------------9--7---6---7--------7--9---------7--5------7---5|
D|------------9---7---------------------------------9---7-----------------|
A|------------------------------------------------------------------------|
E|------------------------------------------------------------------------|

   *                  *                  *                  
e|------------------------------------------------------------------------|
B|-7------------------7------------------7----------------------6--8------|
G|-----7--9---------------9--7---6---7--------7--9---------7--5------7-8-8|
D|------------9---7---------------------------------9---7-----------------|
A|------------------------------------------------------------------------|
E|------------------------------------------------------------------------|

Solo - Guitar 2
e|------------------------------------------------------------------------|
B|-10-------------------10---8--7---5--6---10-----------------------11-11-|
G|-----11--12---9---7---------------------------11--12--9--7--10-12-------|
D|------------------------------------------------------------------------|
A|------------------------------------------------------------------------|
E|------------------------------------------------------------------------|

e|--------------|
B|--------------|
G|-10--12-12----|
D|--------------|
A|--------------|
E|--------------|

Repeat Riff A (faster)
Repeat Riff C - Verse
Repeat Riff D - Chorus (end)


| /  slide up
| \  slide down
| h  hammer-on
| p  pull-off
| ~  vibrato
| +  harmonic
| x  Mute note
===========================================================================





Comments


Popular Extol tabs & chords
26 Miles To Marathon Tabs
A Structure Of Souls Tabs
Aperture Tabs
Blood Red Cover Tabs
Paradigms Intro Tabs
Psychopath Tabs
Scrape The Surface Tabs
Storms Of Disillusions Intro Tabs
Time Stands Still Tabs
Where Sleep Is Rest Tabs


Song lyrics



↑ Back to top | Tablatures and chords are parodies/interpretations of the original songs. You may use it for private study, scholarship, research or language learning purposes only
© 2014 AZChords.com Contact us | Privacy policy | DMCA | Add/correct tabs | Request tabs | Top 50 tabs