» » »

Exploited, What You Gonna Do Tabs (ver.1)

Artists:  A B C D E F G H I J K L M N O P Q R S T U V W X Y Z # 

What You Gonna Do Tabs (ver.1)

Exploited Tabs
Rating:
0/5 (0 votes)
Hard to play? Try these video lessons and learn fast.
                what you gonna do
exploited
INTRO (let it ring out)
e|---------------------------------------------------------------------------|
B|---------------------------------------------------------------------------|
G|---------------------------------------------------------------------------|
D|--7-7----------------------------------------------------------------------|
A|--7-7----------------------------------------------------------------------|
E|--5-5----------------------------------------------------------------------|

VERSE
e|---------------------------------------------------------------------------|
B|---------------------------------------------------------------------------|
G|----------5-5-7-7----------------------------------------------------------|
D|--7-7-7-7-5-5-7-7----------------------------------------------------------|
A|--7-7-7-7-3-3-5-5----------------------------------------------------------|
E|--5-5-5-5------------------------------------------------------------------|

CHORUS
e|---------------------------------------------------------------------------|
B|---------------------------------------------------------------------------|
G|---------------------------------------------------------------------------|
D|--2-2-2-2-3-3-5-5----------------------------------------------------------|
A|--2-2-2-2-3-3-5-5----------------------------------------------------------|
E|--0-0-0-0-1-1-3-3----------------------------------------------------------|
            

comments powered by Disqus
↑ Back to top | Exploited Tabs for What You Gonna Do. Lyrics for acoustic guitar and electric guitar. Tablatures and chords are parodies/interpretations of the original songs. You may use it for private study, scholarship, research or language learning purposes only