» » »

Porno Slut Tabs (ver.1)

Artists:  A B C D E F G H I J K L M N O P Q R S T U V W X Y Z # 

Porno Slut Tabs (ver.1)

Exploited
Rating:
0/5 (0 votes)

Tabs too difficult? Try these video lessons and learn fast.
                Intro and chorus: 

exploited
porno sl*t
Intro and chorus: 

e ------------------------------------------------| 
B ------------------------------------------------| 
G --9--9-10-7--9--9-10-----9--9-10-7--------------| 
D --9--9-10-7--9--9-10-10--9--9-10-7--10-9-8-5----| 
A --7--7--8-5--7--7--8-10--7--7--8-5--10-9-8-5----| 
E ----------------------8--------------8-7-6-3----| 


Verse: 

e ------------------------------------------------| 
B ------------------------------------------------| 
G --999999999--10-7--999999-----------12-12-12----| 
D --999999999--10-7--999999---10-10---12-12-12----| 
A --777777777---8-5--777777---10-10---10-10-10----| 
E -----------------------------8--8---------------|
            
Tabs too difficult? Try these video lessons and learn fast.




comments powered by Disqus
↑ Back to top | Tablatures and chords are parodies/interpretations of the original songs. You may use it for private study, scholarship, research or language learning purposes only