» » »

Mucky Pup Bass tabs (ver.1)

Artists:  A B C D E F G H I J K L M N O P Q R S T U V W X Y Z # 

Mucky Pup Bass tabs (ver.1)

Exploited
Rating:
0/5 (0 votes)

Hard to play? Try these video lessons and learn fast.
                ----------------------------------------------------------------------------
			     Mucky Pup - The Exploited
----------------------------------------------------------------------------


Tuning:Standard E,A,D,G

Intro
G|-------------------------------------------------------------------|
D|----------------------------44444444----------------------------4--|
A|-------------------33333333----------------------------33333333----|
E|-55555555-33333333-------------------55555555-33333333-------------|

Verse
G|-------------|
D|----------4--|
A|-------3-----|
E|-5--3--------|

Solo
G|--------------------------------------|
D|----------------------------44444444--|
A|-------------------33333333-----------|   X2
E|-55555555-33333333--------------------|

G|-------------------------------|
D|----------------------------4--|
A|-------------------33333333----|
E|-55555555-33333333-------------|

============================================================================
            
Hard to play? Try these video lessons and learn fast. | Correct




comments powered by Disqus
↑ Back to top | Tablatures and chords are parodies/interpretations of the original songs. You may use it for private study, scholarship, research or language learning purposes only