» » »

Germs Bass tabs (ver.1)

Artists:  A B C D E F G H I J K L M N O P Q R S T U V W X Y Z # 

Germs Bass tabs (ver.1)

Exploited
Rating:
0/5 (0 votes)

Tabs too difficult? Try these video lessons and learn fast.
                You have to figure the right rhythm out by playing along with the song
But it goes something like this and these are the right notes
G-----------------||
D----3-2-0-------*|| 3 or 4 X's intro
A-00-------23----*||
E-----------------||
  (PM)        (PM)the open A's
 
Main verse
G---------------------------------------------||
D--------------------------------------------*||
A-5-55-55-5-55---557-766-666-----------------*||
E----------------------------5-55-55--5-55-55-||

Chorus
G-----------------------------------||
D----------------------------------*||
A-----------0-1--2-3---00000000----*||
E-3333333--1------------------------||Listen to the song to get the rhythm of the chours right


Kind of an outro thing
G-----------------|
D-----------------|
A----0-2-3-5-3-2-0|like 3 X's
E-----------------|
Germs kill kill kill you!

Ends with an open A
G-------------------------|
D-------------------------|
A-0-(hold-open-A-for-end)-|
E-------------------------|

I know a lot of exploited songs that 
I haven't been tabbed here yet because 
I find it a pain in the arse, but if 
anyone really wants to know a song by 
I'll tabb it for ya. And I'll put it 
up here. I know most of every album 
except maybe the newest one and that
is because of the wiered bass sound, 
I think it's got alot of mid in it. 
because no one is as punk as chuck!!
Up the f*****g Punx!!!!
We don't give a f****g S**t because were still playing to the punks
            
Tabs too difficult? Try these video lessons and learn fast.


comments powered by Disqus
↑ Back to top | Tablatures and chords are parodies/interpretations of the original songs. You may use it for private study, scholarship, research or language learning purposes only