» » »

Exploited, Free Flight Tabs (ver.1)

Artists:  A B C D E F G H I J K L M N O P Q R S T U V W X Y Z # 

Free Flight Tabs (ver.1)

Exploited Tabs
 Rating:
4/5 (4 votes)
Free Flight lessons Tabs too difficult? Try these video lessons and learn fast
                -			     Free Flight - The Exploited

This tab is pretty much spot on. Note the small changes between the verse riffs these
exactly how The Exploited played it the recording. I also included the mistake they made
the second verse where they played the Verse Riff 1 for one bar too many, just put it in 
a bit of a laugh. Have fun with this one, good band, good song.

Tuning:EADGBe

| ~  Hold Note
| x  Palm Mute

Intro/Outro Riff

e|--------------------------------------------------------------------------|
B|--------------------------------------------------------------------------|
G|--------------------------------------------------------------------------|
D|----------------4-5-------------------------------------------------------|
A|-2222-2222-2222-4-5-------------------------------------------------------|
E|-0000-0000-0000-2-3-------------------------------------------------------|
   xxxx xxxx xxxx

Verse Riff 1

e|--------------------------------------------------------------------------|
B|--------------------------------------------------------------------------|
G|--------------------------------------------------------------------------|
D|-2-2-2-2-4-5-7------------------------------------------------------------|
A|-2-2-2-2-4-5-7------------------------------------------------------------|
E|-0-0-0-0-2-3-5------------------------------------------------------------|

Verse Riff 2

e|--------------------------------------------------------------------------|
B|--------------------------------------------------------------------------|
G|--------------------------------------------------------------------------|
D|----------4---5---7-------------------------------------------------------|
A|-2-222222-4---5---7-------------------------------------------------------|
E|-0-000000-2-0-3-0-5-------------------------------------------------------|
   x xxxxxx   x   x

Chorus Riff

e|--------------------------------------------------------------------------|
B|--------------------------------------------------------------------------|
G|---9-5---7-6---5-4--------------------------------------------------------|
D|-9x9x5-7x7x6-5x5x4-7-7-7-7-5----------------------------------------------|
A|-9x7x7-7x5x4-5x3x2-7-7-7-7-5----------------------------------------------|
E|-7x-x--5x-x--3x-x--5-5-5-5-3----------------------------------------------|

End on

e|--------------------------------------------------------------------------|
B|--------------------------------------------------------------------------|
G|--------------------------------------------------------------------------|
D|-2~-----------------------------------------------------------------------|
A|-2~-----------------------------------------------------------------------|
E|-0~-----------------------------------------------------------------------|

*Order*
Intro x14
Verse Riff 1 x4
Verse Riff 2 x8
Chorus x3
Verse Riff 1 x5
Verse Riff 2 x3
Chorus x3
Verse Riff 1 x4
Verse Riff 2 x4
Chorus x3
Outro x12
End
            
Submit corrections

comments powered by Disqus
↑ Back to top | Exploited Tabs for Free Flight. Lyrics for acoustic guitar and electric guitar. Tablatures and chords are parodies/interpretations of the original songs. You may use it for private study, scholarship, research or language learning purposes only