» » »

Fifteen Years Bass tabs (ver.1)

Artists:  A B C D E F G H I J K L M N O P Q R S T U V W X Y Z # 

Fifteen Years Bass tabs (ver.1)

Exploited
Rating:
0/5 (0 votes)

Hard to play? Try these video lessons and learn fast.
                VERSE:(Intro and Bridges are played the same way.)
G:--------------------------------------------
D:--------------------------------------------
A:--------9-------9---------------------------   
E:---77777---77777---77777---3333-2222--------   
                     ( The first time in the song he slides down from like 12 to 7.)


CHORUS: 
G:--------------------------------------------
D:--------------------------------------------
A:-------------------------------------------- 
E:---5--3-2--0-2-0-33333333-------------------


( 2nd part of chorus )
G:-------------------------------------------------------------
D:-------------------------------------------------------------
A:------9-----9----------------------9-----9------------------- 
E:---777---777---777----3-2-3-5---777---777---777----3-2-3-5---

PUNK ISNT DEAD
            
Hard to play? Try these video lessons and learn fast. | Correct




comments powered by Disqus
↑ Back to top | Tablatures and chords are parodies/interpretations of the original songs. You may use it for private study, scholarship, research or language learning purposes only