» » »

Dog Of War Bass tabs (ver.2)

Artists:  A B C D E F G H I J K L M N O P Q R S T U V W X Y Z # 

Dog Of War Bass tabs (ver.2)

Exploited
Rating:
0/5 (0 votes)

Hard to play? Try these video lessons and learn fast.
                Dogs of War - The Exploited


Verse/Chorus
G|----------------------------|
D|----------------------------|
A|-------7p5-----------5------|
E|-7--7-------7---3-3-----5---|

Bridge (not the chorus with just bass):
G|------------------------------------|
D|------------------------------------|
A|--------7p5-------------------------|
E|--7--7-------7---3-3-3-3--5-5-5-5---|

Thats it for the bass line...i guess you
guys should just start requesting songs
for me to figure out, and i'll do, it if
i can.
            
Hard to play? Try these video lessons and learn fast. | Correct




comments powered by Disqus
↑ Back to top | Tablatures and chords are parodies/interpretations of the original songs. You may use it for private study, scholarship, research or language learning purposes only