» » »

Exploited, Computers Tabs (ver.1)

Artists:  A B C D E F G H I J K L M N O P Q R S T U V W X Y Z # 

Computers Tabs (ver.1)

Exploited Tabs
 Rating:
4/5 (4 votes)
Computers lessons Tabs too difficult? Try these video lessons and learn fast
1
                The exploited: Computers

tuning:Standard

Intro: play a E


Couplet:

e-------------------------
B-------------------------
G-------------------------
D-------------------------
A--2--2--2--2--4--5-5--4--
E--0--0--0--0--2--3-3--2--

Chorus

e----------------------------------
B----------------------------------
G----------------------------------
D--5--5--5-2--2--2---------4--4--4-
A--3--3--3-0--0--0-5--5--5-2--2--2-
E------------------3--3--3---------

This very easy this 2 riff
            
Submit corrections

comments powered by Disqus
↑ Back to top | Exploited Tabs for Computers. Lyrics for acoustic guitar and electric guitar. 1 Tablatures and chords are parodies/interpretations of the original songs. You may use it for private study, scholarship, research or language learning purposes only