» » »

Exploited, Beat The Bastard Tabs (ver.2)

Artists:  A B C D E F G H I J K L M N O P Q R S T U V W X Y Z # 

Beat The Bastard Tabs (ver.2)

Exploited Tabs
 Rating:
4/5 (7 votes)
Beat The Bastard lessons Tabs too difficult? Try these video lessons and learn fast
1
                -------------------------------------------------------------------------------
                             BEAT THE BASTARDS - EXPLOITED
-------------------------------------------------------------------------------

Tuning: Dropped D (DADGBe)

this is my first tab :)
i noticed the other tabs were slightly wrong so i thought i might try and make a more accurate tab.


INTRO
e|---------------------------------------------------------------------------|
B|---------------------------------------------------------------------------|
G|-3--333333333333336666666688889999-----------------------------------------|
D|-3--333333333333336666666688889999----x2-----------------------------------|
A|-1--111111111111114444444466667777-----------------------------------------|
D|---------------------------------------------------------------------------|

VERSE
e|---------------------------------------------------------------------------|
B|---------------------------------------------------------------------------|
G|-3--333333333333336666666688889999-----------------------------------------|
D|-3--333333333333336666666688889999----x4-----------------------------------|
A|-1--111111111111114444444466667777-----------------------------------------|
D|---------------------------------------------------------------------------|
      ..............

CHORUS
e|---------------------------------------------------------------------------|
B|---------------------------------------------------------------------------|
G|---------4\3-333--4\3-333-3------------------------------------------------|
D|-2---1---4\3-333--4\3-333-3---x2-------------------------------------------|
A|-2---1---2\1-111--2\1-111-1------------------------------------------------|
D|-2---1---------------------------------------------------------------------|
               ...      ... .
e|---------------------------------------------------------------------------|
B|---------------------------------------------------------------------------|
G|----------------4\3-333-4\3-333333-----------------------------------------|
D|-2-222222111111-4\3-333-4\3-333333---x2------------------------------------|
A|-2-222222111111-2\1-111-2\1-111111-----------------------------------------|
D|-2-222222111111------------------------------------------------------------|
     ............     ...     ......

and there's the only two riffs in the whole song!
the verse is played behind the solos which i havent been able to tab.


| .  palm mute
| /  slide up
| \  slide down
| h  hammer-on
| p  pull-off
| ~  vibrato
| +  harmonic
| x  Mute note
===============================================================================
            
Submit corrections

comments powered by Disqus
↑ Back to top | Exploited Tabs for Beat The Bastard. Lyrics for acoustic guitar and electric guitar. 1 Tablatures and chords are parodies/interpretations of the original songs. You may use it for private study, scholarship, research or language learning purposes only