» » »

Beat The Bastard Bass tabs (ver.1)

Artists:  A B C D E F G H I J K L M N O P Q R S T U V W X Y Z # 

Beat The Bastard Bass tabs (ver.1)

Exploited
Rating:
0/5 (0 votes)

Hard to play? Try these video lessons and learn fast.
                BEAT THE BASTARD
EXPLOITED
Drop D tuning


G:|------------------------------|\
D:|-------------------0-1-1-11---|  \ x8
A:|--00000000-333333-------------|  /
D:|------------------------------|/


G:|--------------------------------------|\
D:|--------------------------------------|  \ x4
A:|--------------2-1-1111--2-1-1111-2----|  /
D:|---2-----1----------------------------|/

G:|------------------------------|\
D:|-------------------0-1-1-11---|  \ x6
A:|--00000000-333333-------------|  /
D:|------------------------------|/

G:|--------------------------------------|\
D:|--------------------------------------|  \ x4
A:|--------------2-1-1111--2-1-1111-2----|  /
D:|---2-----1----------------------------|/

G:|------------------------------|\
D:|-------------------0-1-1-11---|  \ x10
A:|--00000000-333333-------------|  /
D:|------------------------------|/

G:|--------------------------------------|\
D:|--------------------------------------|  \ x4
A:|--------------2-1-1111--2-1-1111-2----|  /
D:|---2-----1----------------------------|/

G:|------------------------------|\
D:|-------------------0-1-1-11---|  \ x18
A:|--00000000-333333-------------|  /
D:|------------------------------|/

G:|--------------------------------------|\
D:|--------------------------------------|  \ x4
A:|--------------2-1-1111--2-1-1111-2----|  /
D:|---2-----1----------------------------|/

G:|----------------------------|
D:|----------------------------|
A:|---2-1-1111--2-1-1111-2--1--| 
D:|----------------------------|
            
Hard to play? Try these video lessons and learn fast. | Correct




comments powered by Disqus
↑ Back to top | Tablatures and chords are parodies/interpretations of the original songs. You may use it for private study, scholarship, research or language learning purposes only