» » »

Awsome Song Bass tabs (ver.1)

Artists:  A B C D E F G H I J K L M N O P Q R S T U V W X Y Z # 

Awsome Song Bass tabs (ver.1)

Exploited
Rating:
0/5 (0 votes)

Hard to play? Try these video lessons and learn fast.
                Intro
G---------------------------------------------------------------------
D---------------------------------------------------------------------
A---------------------------------------------------------------------
E---5--0----5--0----5--0----0-0-0----5--0---0-0-0-0----6--6--6--0-----

Verse / 0:21
G-----------------------------------------------
D-----------------------------------------------
A-----------------------------------------------
E---5-0---5-0---5-0---5-0---5-0---5---6-6-6-6---

1:02
G------------------------------
D------------------------------
A---555555--666666--444444-----
E------------------------------

1:07
G-----------------------------------------------------------------------
D---------------------------------------------------------33--22--11----
A------------55--44--33--22--11---------------55--44--------------------
E---5555----------------------------5555--------------------------------            (i can hear some extra riffs in this one but i dont know were they are)


Thats all i got so far, ill get the rest figured out soon.
            
Hard to play? Try these video lessons and learn fast. | Correct




comments powered by Disqus
↑ Back to top | Tablatures and chords are parodies/interpretations of the original songs. You may use it for private study, scholarship, research or language learning purposes only