>
 >
Burned Alive

Burned Alive Guitar Tabs

Evile - Burned Alive chords, tabs, tablatures, lyrics

Guitar lessons | Add/correct | Request | Top 50 tabs Artists:  A B C D E F G H I J K L M N O P Q R S T U V W X Y Z 0-9

Burned Alive Guitar Tabs – Evile

CD, Sheet music, Poster

Do you like Burned Alive? Share with your friends now
Tabs
-------------------------------------------------------------------------------
-------------------------------------------------------------------------------



Tuning: E Flat


D#|------------------------------------------------------------------------------|
A#|------------------------------------------------------------------------------|
F#|-2-----------------------------------------------3-3--------------------------|
C#|-2-----------------------------------------------1-1--------------------------|
G#|-0--0-0-0-0-0-0-0-0-0-0-0-0-0-0-0-0-0-0-0-0-0-0-------------------------------|
D#|------------------------------------------------------------------------------|


D#|------------------------------------------------------------------------------|
A#|------------------------------------------------------------------------------|
F#|-2----------------------------------------------------------------------------|
C#|-2-----------6\5---------------7\6-----------8---8\---------------------------|
G#|-0--0-0-0-0--4\3--0-0-0-0-0-0--5\4--0-0-0-0--6-0-6\---------------------------|
D#|------------------------------------------------------------------------------|


D#|------------------------------------------------------------------------------|
A#|------------------------------------------------------------------------------|
F#|-2----------------------------------------------------------------------------|
C#|-2-----------6\5---------------7\6--------------------------------------------|
G#|-0--0-0-0-0--4\3--0-0-0-0-0-0--5\4--0-0-0-0--8--6-----------------------------|
D#|---------------------------------------------6--4-----------------------------|


D#|------------------------------------------------------------------------------|
A#|------------------------------------------------------------------------------|
F#|-2----------------------------------------------------------------------------|
C#|-2-----------6\5---------------7\6-----------8---8\---------------------------|
G#|-0--0-0-0-0--4\3--0-0-0-0-0-0--5\4--0-0-0-0--6-0-6\---------------------------|
D#|------------------------------------------------------------------------------|


D#|------------------------------------------------------------------------------|
A#|------------------------------------------------------------------------------|
F#|-2----------------------------------------------------------------------------|
C#|-2-----------6\5---------------7\6-----------7h8p7-8--------------------------|
G#|-0--0-0-0-0--4\3--0-0-0-0-0-0--5\4--0-0-0----------6--------------------------|
D#|------------------------------------------------------------------------------|
                       repeat above 4 bars 2x

D#|------------------------------------------------------------------------------|
A#|------------------------------------------------------------------------------|
F#|------------------------------------------------------------------------------|
C#|-6h7p6-7----------------------------------------------------------------------|
G#|-------5----------------------------------------------------------------------|
D#|------------------------------------------------------------------------------|


D#|------------------------------------------------------------------------------|
A#|------------------------------------------------------------------------------|
F#|------------------------------------------------------------------------------|
C#|------------------------------------------------------------------------------|
G#|------------------------------------------------------------------------------|
D#|-0-0-0-0-0-0-0-0-0-0-0-0-0-0-0-0-0-0-0-0-0-0-0-0-0-0-0-0-0-0-0-0-3-3-3-3-3-3--|


D#|------------------------------------------------------------------------------|
A#|------------------------------------------------------------------------------|
F#|------------------------------------------------------------------------------|
C#|------------------------------------------------------------------------------|
G#|------------------------------------------------------------------------------|
D#|-3-3-3-3-3-3-3-3-3-3-3-3-3-3-3-3-3-3-4-4-4-4-4-4-4-4--------------------------|


D#|------------------------------------------------------------------------------|
A#|------------------------------------------------------------------------------|
F#|------------------------------------------------------------------------------|
C#|------------------------------------------------------------------------------|
G#|------------------------------------------------------------------------------|
D#|-0-0-0-0-0-0-0-0-0-0-0-0-0-0-0-0-0-0-0-0-0-0-0-0-0-0-0-0-0-0-0-0-3-3-3-3-3-3--|


D#|------------------------------------------------------------------------------|
A#|------------------------------------------------------------------------------|
F#|------------------------------------------------------------------------------|
C#|------------------------------------------------------------------------------|
G#|-------------------------------------------6----------------------------------|
D#|-3-3-3-3-3-3-3-3-3-3-3-3-3-3-3-3-3-3--4-4--4----------------------------------|


D#|------------------------------------------------------------------------------|
A#|------------------------------------------------------------------------------|
F#|------------------------------------------------------------------------------|
C#|-2---------------------------2------------------------------------------------|
G#|-2---------------------------2---5----------------------------6---------------|
D#|-0--0-0-0-0-0-0-0-0-0-0-0-0--0---3--3-3-3-3-3-3-3-3-3-3--4-4--4---------------|
                       repeat above bar 2x

D#|------------------------------------------------------------------------------|
A#|------------------------------------------------------------------------------|
F#|-2----------------------------------------------------------------------------|
C#|-2-----------6\5---------------7\6-----------8---8\---------------------------|
G#|-0--0-0-0-0--4\3--0-0-0-0-0-0--5\4--0-0-0-0--6-0-6\---------------------------|
D#|------------------------------------------------------------------------------|


D#|------------------------------------------------------------------------------|
A#|------------------------------------------------------------------------------|
F#|-2----------------------------------------------------------------------------|
C#|-2-----------6\5---------------7\6--------------------------------------------|
G#|-0--0-0-0-0--4\3--0-0-0-0-0-0--5\4--0-0-0-0--8--6-----------------------------|
D#|---------------------------------------------6--4-----------------------------|


D#|------------------------------------------------------------------------------|
A#|------------------------------------------------------------------------------|
F#|-2----------------------------------------------------------------------------|
C#|-2-----------6\5---------------7\6-----------8---8\---------------------------|
G#|-0--0-0-0-0--4\3--0-0-0-0-0-0--5\4--0-0-0-0--6-0-6\---------------------------|
D#|------------------------------------------------------------------------------|


D#|------------------------------------------------------------------------------|
A#|------------------------------------------------------------------------------|
F#|-2----------------------------------------------------------------------------|
C#|-2-----------6\5---------------7\6-----------7h8p7-8---6h7p6-7----------------|
G#|-0--0-0-0-0--4\3--0-0-0-0-0-0--5\4--0-0-0----------6---------5----------------|
D#|------------------------------------------------------------------------------|


D#|------------------------------------------------------------------------------|
A#|------------------------------------------------------------------------------|
F#|------------------------------------------------------------------------------|
C#|------------------------------------------------------------------------------|
G#|------------------------------------------------------------------------------|
D#|-0-0-0-0-0-0-0-0-0-0-0-0-0-0-0-0-0-0-0-0-0-0-0-0-0-0-0-0-0-0-0-0-3-3-3-3-3-3--|


D#|------------------------------------------------------------------------------|
A#|------------------------------------------------------------------------------|
F#|------------------------------------------------------------------------------|
C#|------------------------------------------------------------------------------|
G#|------------------------------------------------------------------------------|
D#|-3-3-3-3-3-3-3-3-3-3-3-3-3-3-3-3-3-3-4-4-4-4-4-4-4-4--------------------------|


D#|------------------------------------------------------------------------------|
A#|------------------------------------------------------------------------------|
F#|------------------------------------------------------------------------------|
C#|------------------------------------------------------------------------------|
G#|------------------------------------------------------------------------------|
D#|-0-0-0-0-0-0-0-0-0-0-0-0-0-0-0-0-0-0-0-0-0-0-0-0-0-0-0-0-0-0-0-0-3-3-3-3-3-3--|


D#|------------------------------------------------------------------------------|
A#|------------------------------------------------------------------------------|
F#|------------------------------------------------------------------------------|
C#|------------------------------------------------------------------------------|
G#|-------------------------------------------6----------------------------------|
D#|-3-3-3-3-3-3-3-3-3-3-3-3-3-3-3-3-3-3--4-4--4----------------------------------|


D#|------------------------------------------------------------------------------|
A#|------------------------------------------------------------------------------|
F#|------------------------------------------------------------------------------|
C#|-2---------------------------2------------------------------------------------|
G#|-2---------------------------2---5----------------------------6---------------|
D#|-0--0-0-0-0-0-0-0-0-0-0-0-0--0---3--3-3-3-3-3-3-3-3-3-3--4-4--4---------------|
                         repeat above bar 2x

D#|------------------------------------------------------------------------------|
A#|------------------------------------------------------------------------------|
F#|-2----------------------------------------------------------------------------|
C#|-2-----------6\5---------------7\6-----------8---8\---------------------------|
G#|-0--0-0-0-0--4\3--0-0-0-0-0-0--5\4--0-0-0-0--6-0-6\---------------------------|
D#|------------------------------------------------------------------------------|


D#|------------------------------------------------------------------------------|
A#|------------------------------------------------------------------------------|
F#|-2----------------------------------------------------------------------------|
C#|-2-----------6\5---------------7\6--------------------------------------------|
G#|-0--0-0-0-0--4\3--0-0-0-0-0-0--5\4--0-0-0-0--8--6-----------------------------|
D#|---------------------------------------------6--4-----------------------------|


D#|------------------------------------------------------------------------------|
A#|------------------------------------------------------------------------------|
F#|-2----------------------------------------------------------------------------|
C#|-2-----------6\5---------------7\6-----------8---8\---------------------------|
G#|-0--0-0-0-0--4\3--0-0-0-0-0-0--5\4--0-0-0-0--6-0-6\---------------------------|
D#|------------------------------------------------------------------------------|


D#|------------------------------------------------------------------------------|
A#|------------------------------------------------------------------------------|
F#|-2----------------------------------------------------------------------------|
C#|-2-----------6\5---------------7\6-----------7h8p7-8--------------------------|
G#|-0--0-0-0-0--4\3--0-0-0-0-0-0--5\4--0-0-0----------6--------------------------|
D#|------------------------------------------------------------------------------|


D#|------------------------------------------------------------------------------|
A#|------------------------------------------------------------------------------|
F#|------------------------------------------------------------------------------|
C#|-7----4--5--7--8--------------------------------------------------------------|
G#|-5----2--3--5--6--------------------------------------------------------------|
D#|------------------------------------------------------------------------------|


D#|------------------------------------------------------------------------------|
A#|------------------------------------------------------------------------------|
F#|-3-------3-----------------3-2------------------------------------------------|
C#|-1-------1-----------------1-1------------------------------------------------|
G#|----0-0-----0-0--3-2-0--0-------0--3-2-0--3-2-0-------------------------------|
D#|------------------------------------------------------------------------------|
  BURNED!!              repeat above bar 5x

D#|------------------------------------------------------------------------------|
A#|------------------------------------------------------------------------------|
F#|-3----------------------------------------------------------------------------|
C#|-1------------7------------5\4----------------4-------------------------------|
G#|----0--3-2-0--5--0--3-2-0--3\2--3-2-0--3-2-0--2-------------------------------|
D#|------------------------------------------------------------------------------|
                                             BURNED AT THE STAKE!!!

D#|------------------------------------------------------------------------------|
A#|------------------------------------------------------------------------------|
F#|-2----------------------------------------------------------------------------|
C#|-2-----------6\5---------------7\6-----------8---8\---------------------------|
G#|-0--0-0-0-0--4\3--0-0-0-0-0-0--5\4--0-0-0-0--6-0-6\---------------------------|
D#|------------------------------------------------------------------------------|


D#|------------------------------------------------------------------------------|
A#|------------------------------------------------------------------------------|
F#|-2----------------------------------------------------------------------------|
C#|-2-----------6\5---------------7\6--------------------------------------------|
G#|-0--0-0-0-0--4\3--0-0-0-0-0-0--5\4--0-0-0-0--8--6-----------------------------|
D#|---------------------------------------------6--4-----------------------------|


D#|------------------------------------------------------------------------------|
A#|------------------------------------------------------------------------------|
F#|-2----------------------------------------------------------------------------|
C#|-2-----------6\5---------------7\6-----------8---8\---------------------------|
G#|-0--0-0-0-0--4\3--0-0-0-0-0-0--5\4--0-0-0-0--6-0-6\---------------------------|
D#|------------------------------------------------------------------------------|


D#|------------------------------------------------------------------------------|
A#|------------------------------------------------------------------------------|
F#|-2----------------------------------------------------------------------------|
C#|-2-----------6\5---------------7\6-----------7h8p7-8---6h7p6-7----------------|
G#|-0--0-0-0-0--4\3--0-0-0-0-0-0--5\4--0-0-0----------6---------5----------------|
D#|------------------------------------------------------------------------------|


D#|------------------------------------------------------------------------------|
A#|------------------------------------------------------------------------------|
F#|------------------------------------------------------------------------------|
C#|------------------------------------------------------------------------------|
G#|------------------------------------------------------------------------------|
D#|-0-0-0-0-0-0-0-0-0-0-0-0-0-0-0-0-0-0-0-0-0-0-0-0-0-0-0-0-0-0-0-0-3-3-3-3-3-3--|


D#|------------------------------------------------------------------------------|
A#|------------------------------------------------------------------------------|
F#|------------------------------------------------------------------------------|
C#|------------------------------------------------------------------------------|
G#|------------------------------------------------------------------------------|
D#|-3-3-3-3-3-3-3-3-3-3-3-3-3-3-3-3-3-3-4-4-4-4-4-4-4-4--------------------------|


D#|------------------------------------------------------------------------------|
A#|------------------------------------------------------------------------------|
F#|------------------------------------------------------------------------------|
C#|------------------------------------------------------------------------------|
G#|------------------------------------------------------------------------------|
D#|-0-0-0-0-0-0-0-0-0-0-0-0-0-0-0-0-0-0-0-0-0-0-0-0-0-0-0-0-0-0-0-0-3-3-3-3-3-3--|


D#|------------------------------------------------------------------------------|
A#|------------------------------------------------------------------------------|
F#|------------------------------------------------------------------------------|
C#|------------------------------------------------------------------------------|
G#|-------------------------------------------6----------------------------------|
D#|-3-3-3-3-3-3-3-3-3-3-3-3-3-3-3-3-3-3--4-4--4----------------------------------|


D#|------------------------------------------------------------------------------|
A#|------------------------------------------------------------------------------|
F#|------------------------------------------------------------------------------|
C#|-2---------------------------2------------------------------------------------|
G#|-2---------------------------2---5----------------------------6---------------|
D#|-0--0-0-0-0-0-0-0-0-0-0-0-0--0---3--3-3-3-3-3-3-3-3-3-3--4-4--4---------------|
                         repeat above bar 2x

D#|------------------------------------------------------------------------------|
A#|------------------------------------------------------------------------------|
F#|-2----------------------------------------------------------------------------|
C#|-2-----------6\5---------------7\6-----------8---8\---------------------------|
G#|-0--0-0-0-0--4\3--0-0-0-0-0-0--5\4--0-0-0-0--6-0-6\---------------------------|
D#|------------------------------------------------------------------------------|


D#|------------------------------------------------------------------------------|
A#|------------------------------------------------------------------------------|
F#|-2----------------------------------------------------------------------------|
C#|-2-----------6\5---------------7\6--------------------------------------------|
G#|-0--0-0-0-0--4\3--0-0-0-0-0-0--5\4--0-0-0-0--8--6-----------------------------|
D#|---------------------------------------------6--4-----------------------------|


D#|------------------------------------------------------------------------------|
A#|------------------------------------------------------------------------------|
F#|-2----------------------------------------------------------------------------|
C#|-2-----------6\5---------------7\6-----------8---8\---------------------------|
G#|-0--0-0-0-0--4\3--0-0-0-0-0-0--5\4--0-0-0-0--6-0-6\---------------------------|
D#|------------------------------------------------------------------------------|


D#|------------------------------------------------------------------------------|
A#|------------------------------------------------------------------------------|
F#|-2----------------------------------------------------------------------------|
C#|-2-----------6\5---------------7\6-----------7h8p7-8--------------------------|
G#|-0--0-0-0-0--4\3--0-0-0-0-0-0--5\4--0-0-0----------6--------------------------|
D#|------------------------------------------------------------------------------|


D#|------------------------------------------------------------------------------|
A#|------------------------------------------------------------------------------|
F#|------------------------------------------------------------------------------|
C#|-7----4--5--7--8--------------------------------------------------------------|
G#|-5----2--3--5--6--------------------------------------------------------------|
D#|------------------------------------------------------------------------------|


D#|------------------------------------------------------------------------------|
A#|------------------------------------------------------------------------------|
F#|-3-------3-----------------3-2------------------------------------------------|
C#|-1-------1-----------------1-1------------------------------------------------|
G#|----0-0-----0-0--3-2-0--0-------0--3-2-0--3-2-0-------------------------------|
D#|------------------------------------------------------------------------------|
  BURNED!!              repeat above bar 5x

D#|------------------------------------------------------------------------------|
A#|------------------------------------------------------------------------------|
F#|-3----------------------------------------------------------------------------|
C#|-1------------7------------5\4----------------4-------------------------------|
G#|----0--3-2-0--5--0--3-2-0--3\2--3-2-0--3-2-0--2-------------------------------|
D#|------------------------------------------------------------------------------|
                                             BURNED AT THE STAKE!!!

D#|------------------------------------------------------------------------------|
A#|------------------------------------------------------------------------------|
F#|-2----------------------------------------------------------------------------|
C#|-2------5h6p5------6\5------7h8p7-8-------------------------------------------|
G#|-0--0-0-------0-0--4\3--0-0-------6-------------------------------------------|
D#|------------------------------------------------------------------------------|
                            repeat above bar 3x

D#|------------------------------------------------------------------------------|
A#|------------------------------------------------------------------------------|
F#|-2----------------------------------------------------------------------------|
C#|-2---------------------------------8------------------------------------------|
G#|-0---------------------------8h9p8-6------------------------------------------|
D#|------------------------------------------------------------------------------|
      guitar 2

D#|------------------------------------------------------------------------------|
A#|------------------------------------------------------------------------------|
F#|------------------------------------------------------------------------------|
C#|-------------------------7h8p7-8----------------------------------------------|
G#|-0-0-0-0-0-0-0-0-0-0-0-0-------6----------------------------------------------|
D#|------------------------------------------------------------------------------|


D#|------------------------------------------------------------------------------|
A#|------------------------------------------------------------------------------|
F#|-2------------------------------------2---------------------------------------|
C#|-2------5h6p5------6\5----------------2------5h6p5------6\5-------7h8p7-8-----|
G#|-0--0-0-------0-0--4\3--0-0--6h7p6-8--0--0-0-------0-0--4\3--0-0--------6-----|
D#|-----------------------------------6------------------------------------------|
                               repeat above bar 2x

D#|------------------------------------------------------------------------------|
A#|------------------------------------------------------------------------------|
F#|------------------------------------------------------------------------------|
C#|-7-------------------------------------------------------6-6------------------|
G#|-5--5-5-5-5-5-5-5-5-5-5-5-5-5-5--5--5-5-5-8-8------------4-4------------------|
D#|------------------------------------------6-6---6--6-6-6----------------------|


D#|------------------------------------------------------------------------------|
A#|------------------------------------------------------------------------------|
F#|-2------------------------------------2---------------------------------------|
C#|-2------5h6p5------6\5----------------2------5h6p5------6\5-------7h8p7-8-----|
G#|-0--0-0-------0-0--4\3--0-0--6h7p6-8--0--0-0-------0-0--4\3--0-0--------6-----|
D#|-----------------------------------6------------------------------------------|


D#|------------------------------------------------------------------------------|
A#|------------------------------------------------------------------------------|
F#|------------------------------------------------------------------------------|
C#|-7-------------------------------------------------------6-6------------------|
G#|-5--5-5-5-5-5-5-5-5-5-5-5-5-5-5--5--5-5-5-8-8------------4-4------------------|
D#|------------------------------------------6-6---6--6-6-6----------------------|


D#|------------------------------------------------------------------------------|
A#|------------------------------------------------------------------------------|
F#|-2------------------------------------2---------------------------------------|
C#|-2------5h6p5------6\5----------------2------5h6p5------6\5-------7h8p7-8-----|
G#|-0--0-0-------0-0--4\3--0-0--6h7p6-8--0--0-0-------0-0--4\3--0-0--------6-----|
D#|-----------------------------------6------------------------------------------|


D#|------------------------------------------------------------------------------|
A#|------------------------------------------------------------------------------|
F#|------------------------------------------------------------------------------|
C#|-6h7p6-7---4h5p4-5------------------------------------------------------------|
G#|-------5---------3------------------------------------------------------------|
D#|------------------------------------------------------------------------------|


D#|------------------------------------------------------------------------------|
A#|------------------------------------------------------------------------------|
F#|-5-----2-----------2------------------------------------2---------------------|
C#|-3-----2-----3-----2------------------------------------2---------------------|
G#|-------0-----1-----0-----3---------------------------3--0--0-0-0-0-0-0-0-0-0--|
D#|-------------------------1--1-1-1-1-1-1-1-1-1-1-1-1--1------------------------|
   solo rhythm

D#|------------------------------------------------------------------------------|
A#|------------------------------------------------------------------------------|
F#|--------2---------------------------------2---------------------------2-------|
C#|--------2--3---------------------------3--2---------------------------2-------|
G#|-0-0-0--0--1--1-1-1-1-1-1-1-1-1-1-1-1--1--0--0-0-0-0-0-0-0-0-0-0-0-0--0-------|
D#|------------------------------------------------------------------------------|


D#|------------------------------------------------------------------------------|
A#|------------------------------------------------------------------------------|
F#|--------------------------------2---------------------------2-----------------|
C#|--------------------------------2---------------------------2--3--------------|
G#|-3---------------------------3--0--0-0-0-0-0-0-0-0-0-0-0-0--0--1--1-1-1-1-1-1-|
D#|-1--1-1-1-1-1-1-1-1-1-1-1-1--1------------------------------------------------|


D#|------------------------------------------------------------------------------|
A#|------------------------------------------------------------------------------|
F#|-----------------2-------------------------------5----2---------2-------------|
C#|--------------3--2-------------------------------3----2----3----2-------------|
G#|-1-1-1-1-1-1--1--0--0-0-0-0-0-0-0-0-0-0-0-0-0-0-------0----1----0-------------|
D#|------------------------------------------------------------------------------|


D#|------------------------------------------------------------------------------|
A#|------------------------------------------------------------------------------|
F#|-2-----------------------------------------------3-3--------------------------|
C#|-2-----------------------------------------------1-1--------------------------|
G#|-0--0-0-0-0-0-0-0-0-0-0-0-0-0-0-0-0-0-0-0-0-0-0-------------------------------|
D#|------------------------------------------------------------------------------|


D#|------------------------------------------------------------------------------|
A#|------------------------------------------------------------------------------|
F#|-2----------------------------------------------------------------------------|
C#|-2-----------6\5---------------7\6-----------8---8\---------------------------|
G#|-0--0-0-0-0--4\3--0-0-0-0-0-0--5\4--0-0-0-0--6-0-6\---------------------------|
D#|------------------------------------------------------------------------------|


D#|------------------------------------------------------------------------------|
A#|------------------------------------------------------------------------------|
F#|-2----------------------------------------------------------------------------|
C#|-2-----------6\5---------------7\6--------------------------------------------|
G#|-0--0-0-0-0--4\3--0-0-0-0-0-0--5\4--0-0-0-0--8--6-----------------------------|
D#|---------------------------------------------6--4-----------------------------|


D#|------------------------------------------------------------------------------|
A#|------------------------------------------------------------------------------|
F#|-2----------------------------------------------------------------------------|
C#|-2-----------6\5---------------7\6-----------8---8\---------------------------|
G#|-0--0-0-0-0--4\3--0-0-0-0-0-0--5\4--0-0-0-0--6-0-6\---------------------------|
D#|------------------------------------------------------------------------------|


D#|------------------------------------------------------------------------------|
A#|------------------------------------------------------------------------------|
F#|-2----------------------------------------------------------------------------|
C#|-2-----------6\5---------------7\6-----------7h8p7-8--------------------------|
G#|-0--0-0-0-0--4\3--0-0-0-0-0-0--5\4--0-0-0----------6--------------------------|
D#|------------------------------------------------------------------------------|
                       repeat above 4 bars 2x

D#|------------------------------------------------------------------------------|
A#|------------------------------------------------------------------------------|
F#|------------------------------------------------------------------------------|
C#|-6h7p6-7----------------------------------------------------------------------|
G#|-------5----------------------------------------------------------------------|
D#|------------------------------------------------------------------------------|


D#|------------------------------------------------------------------------------|
A#|------------------------------------------------------------------------------|
F#|------------------------------------------------------------------------------|
C#|------------------------------------------------------------------------------|
G#|------------------------------------------------------------------------------|
D#|-0-0-0-0-0-0-0-0-0-0-0-0-0-0-0-0-0-0-0-0-0-0-0-0-0-0-0-0-0-0-0-0-3-3-3-3-3-3--|


D#|------------------------------------------------------------------------------|
A#|------------------------------------------------------------------------------|
F#|------------------------------------------------------------------------------|
C#|------------------------------------------------------------------------------|
G#|------------------------------------------------------------------------------|
D#|-3-3-3-3-3-3-3-3-3-3-3-3-3-3-3-3-3-3-4-4-4-4-4-4-4-4--------------------------|


D#|------------------------------------------------------------------------------|
A#|------------------------------------------------------------------------------|
F#|------------------------------------------------------------------------------|
C#|------------------------------------------------------------------------------|
G#|------------------------------------------------------------------------------|
D#|-0-0-0-0-0-0-0-0-0-0-0-0-0-0-0-0-0-0-0-0-0-0-0-0-0-0-0-0-0-0-0-0-3-3-3-3-3-3--|


D#|------------------------------------------------------------------------------|
A#|------------------------------------------------------------------------------|
F#|------------------------------------------------------------------------------|
C#|------------------------------------------------------------------------------|
G#|-------------------------------------------6----------------------------------|
D#|-3-3-3-3-3-3-3-3-3-3-3-3-3-3-3-3-3-3--4-4--4----------------------------------|


D#|------------------------------------------------------------------------------|
A#|------------------------------------------------------------------------------|
F#|------------------------------------------------------------------------------|
C#|-2---------------------------2------------------------------------------------|
G#|-2---------------------------2---5----------------------------6---------------|
D#|-0--0-0-0-0-0-0-0-0-0-0-0-0--0---3--3-3-3-3-3-3-3-3-3-3--4-4--4---------------|
                       repeat above bar 2x

D#|------------------------------------------------------------------------------|
A#|------------------------------------------------------------------------------|
F#|-2----------------------------------------------------------------------------|
C#|-2-----------6\5---------------7\6-----------8---8\---------------------------|
G#|-0--0-0-0-0--4\3--0-0-0-0-0-0--5\4--0-0-0-0--6-0-6\---------------------------|
D#|------------------------------------------------------------------------------|


D#|------------------------------------------------------------------------------|
A#|------------------------------------------------------------------------------|
F#|-2----------------------------------------------------------------------------|
C#|-2-----------6\5---------------7\6--------------------------------------------|
G#|-0--0-0-0-0--4\3--0-0-0-0-0-0--5\4--0-0-0-0--8--6-----------------------------|
D#|---------------------------------------------6--4-----------------------------|


D#|------------------------------------------------------------------------------|
A#|------------------------------------------------------------------------------|
F#|-2----------------------------------------------------------------------------|
C#|-2-----------6\5---------------7\6-----------8---8\---------------------------|
G#|-0--0-0-0-0--4\3--0-0-0-0-0-0--5\4--0-0-0-0--6-0-6\---------------------------|
D#|------------------------------------------------------------------------------|


D#|------------------------------------------------------------------------------|
A#|------------------------------------------------------------------------------|
F#|-2----------------------------------------------------------------------------|
C#|-2-----------6\5---------------7\6-----------7h8p7-8--------------------------|
G#|-0--0-0-0-0--4\3--0-0-0-0-0-0--5\4--0-0-0----------6--------------------------|
D#|------------------------------------------------------------------------------|


D#|------------------------------------------------------------------------------|
A#|------------------------------------------------------------------------------|
F#|------------------------------------------------------------------------------|
C#|-7----4--5--7--3--------------------------------------------------------------|
G#|-5----2--3--5--1--------------------------------------------------------------|
D#|------------------------------------------------------------------------------|


D#|------------------------------------------------------------------------------|
A#|------------------------------------------------------------------------------|
F#|------------------------------------------------------------------------------|
C#|-3-------3-----------------3-2------------------------------------------------|
G#|-1-------1-----------------1-1------------------------------------------------|
D#|----0-0-----0-0--3-2-0--0-------0--3-2-0--3-2-0-------------------------------|
                            repeat above bar 7x

D#|------------------------------------------------------------------------------|
A#|------------------------------------------------------------------------------|
F#|------------------------------------------------------------------------------|
C#|-3----------------------------------------------------------------------------|
G#|-1------------7------------5\4------------------------------------------------|
D#|----0--3-2-0--5--0--3-2-0--3\2--3-2-0--3-2-0--3-2-0---------------------------|
                            repeat above bar 8x

D#|------------------------------------------------------------------------------|
A#|------------------------------------------------------------------------------|
F#|------------------------------------------------------------------------------|
C#|-3----------------------------------------------------------------------------|
G#|-1------------7------------5\4----------------4-------------------------------|
D#|----0--3-2-0--5--0--3-2-0--3\2--3-2-0--3-2-0--2-------------------------------|





Comments


Popular Evile tabs & chords
Killer From The Deep Bass Tabs
Armoured Assault Tabs
Bathe In Blood Tabs
Centurion Tabs
Enter The Grave Intro 1 Tabs
First Blood Tabs
Man Against Machine Tabs
Man Against Machine Intro Tabs
Thrasher 1 Tabs
Thrasher 4 Tabs


Song lyrics



↑ Back to top | Tablatures and chords are parodies/interpretations of the original songs. You may use it for private study, scholarship, research or language learning purposes only
© 2014 AZChords.com Contact us | Privacy policy | DMCA | Add/correct tabs | Request tabs | Top 50 tabs