» » »

Every Time I Die, Buffalo Gals Tabs (ver.1)

Artists:  A B C D E F G H I J K L M N O P Q R S T U V W X Y Z # 

Buffalo Gals Tabs (ver.1)

Every Time I Die Tabs
 Rating:
4.3/5 (6 votes)
Buffalo Gals lessons Tabs too difficult? Try these video lessons and learn fast
                Band: Every Time I Die 
Tunning: Dropped D (D-A-D-G-B-E)


This is my first tab. I haven’t worked out any of the solo parts yet. But thought 
I’d just send the rhythm. 


(intro)
|----------------------------------|
|----------------------------------|
|----------------------------------|
|---------------------------11-11--|
|---------------------------11-11--|
|---6--7-8-0-6-7-8-0-6-7-8--11-11--| (x3)


|----------------------------------|
|----------------------------------|
|----------------------------------|
|------------------11-6-11-6-11-8--|
|------------------11-6-11-6-11-8--|
|---6--7-8-0-6-7-8-11-6-11-6-11-8--|

(verse 1)
|----------------------------------|
|----------------------------------|
|----------------------------------|
|---8------------------------------|
|---8------------------------------|
|---8------------------------------|


|----------------------------------|
|----------------------------------|
|----------------------------------|
|---8--------------11-6-11-6-11-8--|
|---8--------------11-6-11-6-11-8--|
|---8--------------11-6-11-6-11-8--|


|----------------------------------|
|----------------------------------|
|----------------------------------|
|---8------------------------------|
|---8------------------------------|
|---8------------------------------|


|----------------------------------|
|----------------------------------|
|----------------------------------|
|---8--------------11-6-11-6-11-8--|
|---8--------------11-6-11-6-11-8--|
|---8--------------11-6-11-6-11-8--| (x4)


|----------------------------------|
|----------------------------------|
|----------------------------------|
|---8-----------------\------------|
|---8-----------------\------------|
|---8-----------------\------------|
                       Pick Scr*p

(chorus 1)
|----------------------------------|
|----------------------------------|
|----------------------------------|
|---------------------------11-11--|
|---------------------------11-11--|
|---6--7-8-0-6-7-8-0-6-7-8--11-11--| (x3)


|----------------------------------|
|----------------------------------|
|----------------------------------|
|------------------11-6-11-6-11-8--|
|------------------11-6-11-6-11-8--|
|---6--7-8-0-6-7-8-11-6-11-6-11-8--|

(verse 2)
|----------------------------------|
|----------------------------------|
|----------------------------------|
|---8--------------11-6-11-6-11-8--|
|---8--------------11-6-11-6-11-8--|
|---8--------------11-6-11-6-11-8--| (x4)

(chorus 2)
|----------------------------------|
|----------------------------------|
|----------------------------------|
|---------------------------11-11--|
|---------------------------11-11--|
|---6--7-8-0-6-7-8-0-6-7-8--11-11--| (x3)


|----------------------------------|
|----------------------------------|
|----------------------------------|
|------------------11-6-11-6-11-8--|
|------------------11-6-11-6-11-8--|
|---6--7-8-0-6-7-8-11-6-11-6-11-8--|



|----------------------------------|
|----------------------------------|
|---6666666666666666---------------|
|------------------------8---------|
|---4444444444444444-----8---------|
|------------------------8---------|


|----------------------------------|
|----------------------------------|
|---6666666666666666---------------|
|------------------------8-8-------|
|---4444444444444444-----8-8-------|
|------------------------8-8-------|

|----------------------------------|
|----------------------------------|
|---6666666666666666---------------|
|------------------------8---------|
|---4444444444444444-----8---------|
|------------------------8---------|


|----------------------------------|
|----------------------------------|
|---66666666-----------------------|
|----------------8-6-8-6-8---------|
|---44444444-----8-6-8-6-8---------|
|----------------8-6-8-6-8---------|


|----------------------------------|
|----------------------------------|
|---6666666666666666---------------|
|---6666666666666666-----8---------|
|---4444444444444444-----8---------|
|------------------------8---------|


|----------------------------------|
|----------------------------------|
|---6666666666666666---------------|
|---6666666666666666-----8-8-------|
|---4444444444444444-----8-8-------|
|------------------------8-8-------|


|----------------------------------|
|----------------------------------|
|---6666666666666666---------------|
|---6666666666666666-----8---------|
|---4444444444444444-----8---------|
|------------------------8---------|


|----------------------------------|
|----------------------------------|
|---66666666-----------------------|
|---66666666-----8-6-8-6-8---------|
|---44444444-----8-6-8-6-8---------|
|----------------8-6-8-6-8---------|


|--------------------------|
|--------------------------|
|--------------------------|
|--------------------------|
|--------------------------|
|---6--7-8-0-6-7-8/11------| (x3)


|--------------------------|
|--------------------------|
|--------------------------|
|---1-1-1---3-3-3----------|
|---1-1-1---3-3-3----------|
|---1-1-1---3-3-3----------|


|--------------------------|
|--------------------------|
|--------------------------|
|--------------------------|
|--------------------------|
|---6--7-8-0-6-7-8/11------| (x3)


|--------------------------|
|--------------------------|
|--------------------------|
|---1-1-1---3-3-3----------|
|---1-1-1---3-3-3----------|
|---1-1-1---3-3-3----------|


|--------------------------|
|--------------------------|
|--------------------------|
|------------------11------|
|------------------11------|
|---6--7-8-0-6-7-8/11------| (x3)


|--------------------------|
|--------------------------|
|--------------------------|
|---1-1-1---3-3-3----------|
|---1-1-1---3-3-3----------|
|---1-1-1---3-3-3----------|


|--------------------------|
|--------------------------|
|--------------------------|
|------------------11------|
|------------------11------|
|---6--7-8-0-6-7-8/11------| (x3)


|--------------------------|
|--------------------------|
|--------------------------|
|---1-1-1---3-3-3----------|
|---1-1-1---3-3-3----------|
|---1-1-1---3-3-3----------|

|--------------------------|
|--------------------------|
|--------------------------|
|------------------11------|
|------------------11------|
|---6--7-8-0-6-7-8/11------| (x3)


|--------------------------|
|--------------------------|
|--------------------------|
|---1-1-1---3-3-3----------|
|---1-1-1---3-3-3----------|
|---1-1-1---3-3-3----------|


|--------------------------|
|--------------------------|
|--------------------------|
|------------------11------|
|------------------11------|
|---6--7-8-0-6-7-8/11------| (x3)


|-------------------------------------------|
|-------------------------------------------|
|-------------------------------------------|
|---1-1-1---3-3-3---1-1-1---3-3-3---1-1-1---|
|---1-1-1---3-3-3---1-1-1---3-3-3---1-1-1—--|
|---1-1-1---3-3-3---1-1-1---3-3-3---1-1-1---|


|---------------------|
|---------------------|
|---------------------|
|---11--8---11-6-11-6-|
|---11--8---11-6-11-6-|
|---11--8---11-6-11-6-|


|----------------------------------|
|----------------------------------|
|----------------------------------|
|---8------------------------------|
|---8------------------------------|
|---8------------------------------|


|----------------------------------|
|----------------------------------|
|----------------------------------|
|---8--------------11-6-11-6-11-8--|
|---8--------------11-6-11-6-11-8--|
|---8--------------11-6-11-6-11-8--| (x3)


|----------------------------------|
|----------------------------------|
|----------------------------------|
|---8-----------------\------------|
|---8-----------------\------------|
|---8-----------------\------------|
                       Pick Scr*p

(chours 3)
|----------------------------------|
|----------------------------------|
|----------------------------------|
|---------------------------11-11--|
|---------------------------11-11--|
|---6--7-8-0-6-7-8-0-6-7-8--11-11--| (x3)


|----------------------------------|
|----------------------------------|
|----------------------------------|
|------------------11-6-11-6-11-8--|
|------------------11-6-11-6-11-8--|
|---6--7-8-0-6-7-8-11-6-11-6-11-8--|


|---------------------------------|
|---------------------------------|
|---------------------------------|
|---------------------------6-6---|
|---------------------------6-6---|
|---1--2-3-0-1-2-3-0-1-2-3—-6-6---| (x3)


|---------------------------------|
|---------------------------------|
|---------------------------------|
|------------------11-6-11-6-11---|
|------------------11-6-11-6-11---|
|---1--2-3-0-1-2-3-11-6-11-6-11---|


|---------------------------------|
|---------------------------------|
|---------------------------------|
|---------------------------6-6---|
|---------------------------6-6---|
|---1--2-3-0-1-2-3-0-1-2-3—-6-6---| (x3)


|----------------------------------|
|----------------------------------|
|----------------------------------|
|------------------11-6-11-6-11-8--|
|------------------11-6-11-6-11-8--|
|---1--2-3-0-1-2-3-11-6-11-6-11-8--|


|----------------------------------|
|----------------------------------|
|---6666666666666666---------------|
|---6666666666666666-----8---------|
|---4444444444444444-----8---------|
|------------------------8---------|


|----------------------------------|
|----------------------------------|
|---6666666666666666---------------|
|---6666666666666666-----8-8-------|
|---4444444444444444-----8-8-------|
|------------------------8-8-------|


|----------------------------------|
|----------------------------------|
|---6666666666666666---------------|
|---6666666666666666-----8---------|
|---4444444444444444-----8---------|
|------------------------8---------|


|----------------------------------|
|----------------------------------|
|---6666666666666666---------------|
|---6666666666666666-----8-8-------|
|---4444444444444444-----8-8-------|
|------------------------8-8-------|

|----------------------------------|
|----------------------------------|
|----------------------------------|
|------------------------8-8-------|
|------------------------8-8-------|
|------------------------8-8-------|

Enjoy :]
            
Submit corrections

comments powered by Disqus
↑ Back to top | Every Time I Die Tabs for Buffalo Gals. Lyrics for acoustic guitar and electric guitar. Tablatures and chords are parodies/interpretations of the original songs. You may use it for private study, scholarship, research or language learning purposes only