» » »

Everything Everything, Two For Nero Bass tabs (ver.1)

Artists:  A B C D E F G H I J K L M N O P Q R S T U V W X Y Z # 

Two For Nero Bass tabs (ver.1)

Everything Everything Tabs
 Rating:
4/5 (4 votes)
Two For Nero lessons Tabs too difficult? Try these video lessons and learn fast
                



All tabs by Pedro Zappa
-----------------------------------------------------------------------------
-----------------------------------------------------------------------------


7. Two For Nero


(wait) "In every corner of your parent's home"


G||--------------------|-----------9----9---|
D||--------------------|--------------------|
A||-7-7--7-7--7-7--7-7-|-7-7--7-7----7----7-|
E||--------------------|--------------------|
    i    i    i    i     i    i    i    i
G||--------------------|------9-------------|
D||--------------------|--------------------|
A||-7-7--7-7--7-7--7-7-|-7-7----7--7-6--5-4-|
E||--------------------|--------------------|
    i    i    i    i     i    i    i    i
---

G||--------5-----------|--------------------|
D||--------------------|--------5-----------|
A||-3------------------|--------------------|
E||--------------------|-3------------------|
    i    i    i    i     i    i    i    i
G||--------7-----------|-------------7------|
D||--------------------|--------7-------7---|
A||-5------------------|--------------------|
E||--------------------|--------------------|
    i    i    i    i     i    i    i    i

G||--------5--------\4-|--------------------|
D||--------------------|--------5-----------|
A||-3------------------|--------------------|
E||--------------------|-3--------------5-7-|
    i    i    i    i     i    i    i    i
G||--------------------|--------------------|
D||--------------------|----------/7----7-5-|
A||-5------------------|-5------------------|
E||------------------5-|--------------------|
    i    i    i    i     i    i    i    i


G||--------5-----------|--------------------|
D||--------------------|--------5-----------|
A||-3------------------|--------------------|
E||--------------------|-3------------------|
    i    i    i    i     i    i    i    i
G||--------7-----------|--------------------|
D||--------------------|--------------------|
A||-5----------------05|--------0--5-7--9---|
E||--------------------|--------------------|
    i    i    i    i     i    i    i    i


G||------5------4------|--------------------|
D||--------------------|--------------------|
A||-3------------------|------------------3-|
E||------------------2-|-3------------------|
    i    i    i    i     i    i    i    i
G||--------------------|--------------------|
D||--------------------|--------------------|
A||-5----5------5----5-|-5----5-3--2--------|
E||--------------------|--------------------|
    i    i    i    i     i    i    i    i


G||------5------5------|--------------------|
D||--------------------|------5-------------|
A||-3---------3------2-|----------------0-2-|
E||--------------------|-3------------------|
    i    i    i    i     i    i    i    i
G||------7------7------|--------------------|
D||--------------------|-------------7------|
A||-5------0--5------0-|-5------5/-9----9---|
E||--------------------|--------------------|
    i    i    i    i     i    i    i    i


G||------5-------------|--------------------|
D||--------------------|------5-------------|
A||-3---------3-3----2-|--------------------|
E||--------------------|-3---------3-3--2-3-|
    i    i    i    i     i    i    i    i
G||--------------------|--------------------|
D||------------------7-|-------------7------|
A||-5-----------5------|-5---------9----9-7-|
E||--------5-----------|--------------------|
    i    i    i    i     i    i    i    i


G||------5-------------|--------------------|
D||--------------------|--------5-----------|
A||-3------0--3-3--2-2-|--------------------|
E||--------------------|-3--------------5-7-|
    i    i    i    i     i    i    i    i
G||------7-------------|-7-----------7------|
D||------------------7-|------5/7-------7\--|
A||-5------------------|--------------------|
E||--------------------|--------------------|
    i    i    i    i     i    i    i    i
 

G||------5-------------|--------------------|
D||--------------------|--------------------|
A||-3----------------2-|--------------------|
E||--------------------|-3--------------0---|
    i    i    i    i     i    i    i    i
G||------7------7------|--------------------|
D||--------------------|--------------------|
A||-5------0--5--------|-5----5----0----2---|
E||--------------------|--------------------|
    i    i    i    i     i    i    i    i


G||--------5-------5---|--------------------|
D||--------------------|--------5-----------|
A||-3----3-------------|------------------0-|
E||--------------------|-3----3---------2---|
    i    i    i    i     i    i    i    i
G||--------------------|--------------------|
D||--------------------|-------------7------|
A||(5----5----5-5----5-|-5----5)---79---9-7-|
E||--------------------|--------------------|
B||-3----3----3-3----3-|-3----3-------------|
    i    i    i    i     i    i    i    i


G||------5-------------|--------------------|
D||--------------------|--------------------|
A||-3------3----3----2-|--------------------|
E||--------------------|-3----3------3--2-3-|
    i    i    i    i     i    i    i    i
G||--------------------|--------------------|
D||--------------------|--------------------|
A||(5)---5--(45-5)---5-|(5)--(5)------------|
E||--------------------|-----------0-0--7-5-|
B||-3--------23-3------|-3----3-------------|
    i    i    i    i     i    i    i    i


G||--------------------|--------------------|
D||--------------------|--------------------|
A||-3----3---33-3----2-|--------------------|
E||--------------------|-3----3---23-3--0-0-|
    i    i    i    i     i    i    i    i
G||--------------------|--------------------|
D||--------------------|--------------------|
A||(5)---5---(5)5----5-|(5)----(5)----------|
E||--------------------|-----------0-5--7-5-|
B||-3---------3--------|-3------3-----------|
    i    i    i    i     i    i    i    i


G||------5------5------|--------------------|
D||--------------------|------5-------------|
A||-3----------------2-|--------------------|
E||--------------------|-3--------------2-5-|
    i    i    i    i     i    i    i    i
G||--------------------|--------------------|
D||--------------------|--------------------|
A||(5)---5---(5)5----5-|--------------------|  fade out
E||--------------------|--------------------|
B||-3---------3--------|--------------------|
    i    i    i    i     i    i    i    i


-----------------------------------------------------------------------------
-----------------------------------------------------------------------------
            
Submit corrections

comments powered by Disqus
↑ Back to top | Everything Everything Bass for Two For Nero. Lyrics for acoustic guitar and electric guitar. Tablatures and chords are parodies/interpretations of the original songs. You may use it for private study, scholarship, research or language learning purposes only