» » »

Everything Everything, Nasa Is On Your Side Bass tabs (ver.1)

Artists:  A B C D E F G H I J K L M N O P Q R S T U V W X Y Z # 

Nasa Is On Your Side Bass tabs (ver.1)

Everything Everything Tabs
Rating:
5/5 (1 vote)
Nasa Is On Your Side lessons Tabs too difficult? Try these video lessons and learn fast
                



All tabs by Pedro Zappa
-----------------------------------------------------------------------------
-----------------------------------------------------------------------------


10. NASA Is On Your Side


Verse

(wait)

G||-------------11-----|-------------11-----|
D||----9---------------|----7---------------|
A||-9------------------|-9------------------|
E||--------------------|--------------------|
    i    i    i    i     i    i    i    i
G||-------------11-----|-------------11-----|
D||----7---------------|----7---------------|
A||-9------------------|-9------------------|
E||--------------------|--------------------|
    i    i    i    i     i    i    i    i
G||-------------11-----|-------------11-----|
D||----9---------------|----12--------------|
A||-7------------------|-10-----------------|
E||--------------------|--------------------|
    i    i    i    i     i    i    i    i
G||--------------------|---------------------|
D||------7----12---11--|---------------------|
A||-9------------------|-12--12--12-0--------|
E||--------------------|---------------------|
    i    i    i    i     i     i    i    i

G||-------------11-----|-------------11-----|
D||----9---------------|----7---------------|
A||-9------------------|-9------------------|
E||--------------------|--------------------|
    i    i    i    i     i    i    i    i
G||-------------11-----|-------------11-----|
D||----7---------------|----7---------------|
A||-9------------------|-9------------------|
E||--------------------|--------------------|
    i    i    i    i     i    i    i    i
G||-------------11-----|--------------11-----|
D||----9---------------|-----12--------------|
A||-7------------------|-10------------------|
E||--------------------|---------------------|
    i    i    i    i     i     i    i    i
G||--------------------|---------------------|
D||------7----12---11--|------------12---11--|
A||-9------------------|-12--12--12----------|
E||--------------------|---------------------|
    i    i    i    i     i     i    i    i

Chorus 1

G||--------------------|------7-------------|
D||-8--10-x8--8--------|-0-7----------------|
A||--------------------|--------------------|
E||--------------------|--------------------|
    i    i    i    i     i    i    i    i
G||--------------------|------7------5------|
D||-8--10-x8--8--------|-0-7------------7-5-|
A||--------------------|--------------------|
E||--------------------|--------------------|
    i    i    i    i     i    i    i    i
G||--------------------|------7------5------|
D||-----------8--------|-0-7------------7---|
A||--------------------|--------------------|
E||--------------------|--------------------|
    i    i    i    i     i    i    i    i
G||--------------------|--------------------|
D||-5----5----8----7---|-5------------------|
A||---3----3-----------|-----5-----5/---10--|
E||--------------------|-------x3-----------|
    i    i    i    i     i    i    i    i

G||--------------------|------7------5------|
D||-8--10-x8--8--------|-0-7------------7---|
A||--------------------|--------------------|
E||--------------------|--------------------|
    i    i    i    i     i    i    i    i
G||--------------------|------7------5------|
D||-8--10-x8--8--------|-0-7------------7-5-|
A||--------------------|--------------------|
E||--------------------|--------------------|
    i    i    i    i     i    i    i    i
G||--------------------|------7------5------|
D||-7----8\--/8--------|-0-7------------7---|
A||--------------------|--------------------|
E||--------------------|--------------------|
    i    i    i    i     i    i    i    i
G||--------------------|--------------------------------|
D||-5----5----8----7---|-5------------------------------|
A||---3----3-----------|-----5-----5/--10.10-10.10.10.10|
E||--------------------|-------x3-----------------------|
    i    i    i    i     i    i    i         i

Verse 2

G||-------------11-----|-------------11-----|
D||----9---------------|----7---------------|
A||-9------------------|-9------------------|
E||--------------------|--------------------|
    i    i    i    i     i    i    i    i
G||-------------11-----|-------------11-----|
D||----7---------------|----7---------------|
A||-9------------------|-9------------------|
E||--------------------|--------------------|
    i    i    i    i     i    i    i    i
G||-------------11-----|--------------11-----|
D||----9---------------|-----12--------------|
A||-7------------------|-10------------------|
E||--------------------|---------------------|
    i    i    i    i     i     i    i    i
G||--------------------|---------------------|
D||------7----12---11--|---------------------|
A||-9------------------|-12--12--12-0--------|
E||--------------------|---------------------|
    i    i    i    i     i     i    i    i

G||-------------11-----|-------------11-----|
D||----9---------------|----7---------------|
A||-9------------------|-9------------------|
E||--------------------|--------------------|
    i    i    i    i     i    i    i    i
G||-------------11-----|-------------11-----|
D||----7---------------|----7---------------|
A||-9------------------|-9------------------|
E||--------------------|--------------------|
    i    i    i    i     i    i    i    i
G||-------------11-----|--------------11-----|
D||----9---------------|-----12--------------|
A||-7------------------|-10------------------|
E||--------------------|---------------------|
    i    i    i    i     i     i    i    i
G||--------------------|---------------------|
D||------7----12---11--|--------7------------|
A||-9------------------|-0---0---0--5----4---|
E||--------------------|---------------------|
    i    i    i    i     i     i    i    i


G||--------------------|--------------------|
D||-------------4------|-------------4------|
A||----2---------------|----0---------------|
E||-2------------------|-2------------------|
    i    i    i    i     i    i    i    i
G||--------------------|--------------------|
D||-------------4------|-------------4------|
A||----0---------------|----0---------------|
E||-2------------------|-2------------------|
    i    i    i    i     i    i    i    i
G||--------------------|--------------------|
D||-------------4\-----|-------------4------|
A||----2---------------|----5-----------5---|
E||-0------------------|-3----------------0-|
    i    i    i    i     i    i    i    i
G||--------------------|--------------------|
D||--------------------|----7---------------|
A||------0----5----4---|-0------7--5----4---|
E||-2------------------|--------------------|
    i    i    i    i     i    i    i    i

G||--------------------|--------------------|
D||-------------4------|-------------4------|
A||----2---------------|----0---------------|
E||-2------------------|-2------------------|
    i    i    i    i     i    i    i    i
G||--------------------|--------------------|
D||-------------4------|-------------4------|
A||----0---------------|----0---------------|
E||-2------------------|-2------------------|
    i    i    i    i     i    i    i    i
G||--------------------|--------------------|
D||-------------4\-----|-------------4------|
A||----2---------------|----5-----------5---|
E||-0------------------|-3----------------0-|
    i    i    i    i     i    i    i    i
G||--------------------|--------------------|
D||--------------------|----7------12---11--|
A||------0----5----4---|-0------0-----------|
E||-2------------------|--------------------|
    i    i    i    i     i    i    i    i

Chorus 2

G||--------------------|------7-------------|
D||-8--10-x8--8--------|-0-7----------------|
A||--------------------|--------------------|
E||--------------------|--------------------|
    i    i    i    i     i    i    i    i
G||--------------------|------7------5------|
D||-8--10-x8--8--------|-0-7------------7-5-|
A||--------------------|--------------------|
E||--------------------|--------------------|
    i    i    i    i     i    i    i    i
G||--------------------|------7------5------|
D||-----------8--------|-0-7------------7---|
A||--------------------|--------------------|
E||--------------------|--------------------|
    i    i    i    i     i    i    i    i
G||--------------------|--------------------|
D||-5----5----8----7---|-5------------------|
A||---3----3-----------|-----5-----5/---10--|
E||--------------------|-------x3-----------|
    i    i    i    i     i    i    i    i

G||--------------------|------7------5----5-|
D||-8--10-x8--8--10-x8-|-0-7------------7---|
A||--------------------|--------------------|
E||--------------------|--------------------|
    i    i    i    i     i    i    i    i
G||--------------------|------7------5------|
D||-8--10-x8--8\7--5---|-0-7------------7-5-|
A||--------------------|--------------------|
E||--------------------|--------------------|
    i    i    i    i     i    i    i    i
G||--------------------|------7------5------|
D||-7----8\--/8--------|-0-7------------7---|
A||--------------------|--------------------|
E||--------------------|--------------------|
    i    i    i    i     i    i    i    i
G||--------------------|--------------------|
D||-5----5----8----7---|-5-5--5-5--5-5--5-5-|
A||---3----3-----------|--------------------|
E||--------------------|--------------------|
    i    i    i    i     i    i    i    i
G||--------------------|--------------------|
D||-5----5----8--------|--------------------|
A||---3----3-----------|--------------------|
E||---------------x1---|-3-3--3-3--3-3--3-3-|
    i    i    i    i     i    i    i    i
G||--------------------|---------------------|
D||-5----5-------------|---------------------|
A||---3----3--3----5---|-6-6--6-6--8-8--10-8\|
E||--------------------|---------------------|
    i    i    i    i     i    i    i    i


G||--------------------|--------------------|
D||--------------------|--------------------|
A||--------------------|-6-6--6-6--8-8--8-8-|
E||-4-4--4-4--4----6-8-|--------------------|
    i    i    i    i     i    i    i    i
G||--------------------|--------------------|
D||--------------------|-----------6-6--6-6-|
A||--------------------|-6-6--6-6-----------|
E||-4-4--4-4--4----6-8-|--------------------|
    i    i    i    i     i    i    i    i


G||--------------------|------7------5----5-|
D||-8--10-x8--8--10-x8-|-0-7------------7---|
A||--------------------|--------------------|
E||--------------------|--------------------|
    i    i    i    i     i    i    i    i
G||--------------------|------7------5------|
D||-8--10-x8--8\7--5---|-0-7------------7-5-|
A||--------------------|--------------------|
E||--------------------|--------------------|
    i    i    i    i     i    i    i    i
G||--------------------|------7------5------|
D||-7----8\------------|-0-7------------7---|
A||-----------1--------|--------------------|
E||--------------------|--------------------|
    i    i    i    i     i    i    i    i
G||--------------------|--------------------|
D||-5----5----8----7---|-5---------5--------|
A||---3----3-----------|-----5--------555---|
E||--------------------|-------x3---------3-|
    i    i    i    i     i    i    i    i

G||--------------------|--------------------|
D||-5----5----8--------|-----------5--------|
A||---3----3-----------|-----5--------555---|
E||----------------1-2-|-3-----x3---------3-|
    i    i    i    i     i    i    i    i
G||--------------------|---------------------|
D||-5----5-------------|----------------10-10|
A||---3----3--3----5---|-6-6--6-6--8-8-------|
E||--------------------|---------------------|
    i    i    i    i     i    i    i    i
G||--------------------|--------------------|
D||-9------------------|--------------------|
A||--------------------|--------------------|
E||--------------------|--------------------|
    i    i    i    i     i    i    i    i


-----------------------------------------------------------------------------
-----------------------------------------------------------------------------
            

comments powered by Disqus
↑ Back to top | Everything Everything Bass for Nasa Is On Your Side. Lyrics for acoustic guitar and electric guitar. Tablatures and chords are parodies/interpretations of the original songs. You may use it for private study, scholarship, research or language learning purposes only