» » »

Everything Everything, Leave The Engine Room Bass tabs (ver.1)

Artists:  A B C D E F G H I J K L M N O P Q R S T U V W X Y Z # 

Leave The Engine Room Bass tabs (ver.1)

Everything Everything Tabs
 Rating:
4/5 (4 votes)
Leave The Engine Room lessons Tabs too difficult? Try these video lessons and learn fast
1
                



All tabs by Pedro Zappa
-----------------------------------------------------------------------------
-----------------------------------------------------------------------------


4. Leave The Engine Room


Intro

(wait)

Verse

(wait)

Pre-Chorus 1

G||--------------------|--------------------|
D||-4------------------|-6------------------|
A||----------------6---|--------------------|
E||--------------------|--------------------|
    i    i    i    i     i    i    i    i
G||--------------------|--------------------|
D||-4------------------|-6------------------|
A||----------------6---|-----------6--------|
E||--------------------|--------------------|
    i    i    i    i     i    i    i    i
---

G||-----------3--------|--------------------|
D||--------------------|-4------------------|
A||-2------------------|--------------------|
E||--------------------|--------------------|
    i    i    i    i     i    i    i    i
G||--------------------|--------------------|
D||-----------3--------|--------------------|
A||--------------------|-4------------------|
E||--------------------|--------------------|
    i    i    i    i     i    i    i    i
G||-----------3--------|--------------------|
D||--------------------|-4------------------|
A||-2------------------|--------------------|
E||--------------------|--------------------|
    i    i    i    i     i    i    i    i
G||--------------------|--------------------|--------------------|
D||-----------3--------|--------------------|--------------------|
A||--------------------|-4----------6-------|-4------------------|
E||--------------------|--------------------|----------46---46---|
    i    i    i    i     i    i    i    i     i    i    i    i

Chorus 1

G||--------------------|--------------------|--------------------|
D||--------------------|--------------------|--------------------|
A||--------------------|--------------------|-6------------------|
E||-4------------------|-6------------------|--------------------|
    i    i    i    i     i    i    i    i     i    i    i    i
G||--------------------|--------------------|--------------------|
D||--------------------|--------------------|--------------------|
A||--------------------|--------------------|-9------------------|
E||-4------------------|-6------------------|----------------9---|
    i    i    i    i     i    i    i    i     i    i    i    i
G||--------------------|--------------------|--------------------|
D||--------------------|--------------------|--------------------|
A||--------------------|--------------------|-6--------------4---|
E||-4------------------|-6------------------|--------------------|
    i    i    i    i     i    i    i    i     i    i    i    i
G||--------------------|--------------------|--------------------|
D||--------------------|--------------------|----------------6---|
A||--------------------|--------------------|-9-----------8------|
E||-4------------------|-6------------------|--------------------|
    i    i    i    i     i    i    i    i     i    i    i    i

G||-----------6--------|-----------6--------|-----------6--------|
D||--------------------|--------------------|--------------------|
A||-4--------------4---|--------------------|--------------------|
E||--------------------|-7--------------7---|-5--------------5---|
    i    i    i    i     i    i    i    i     i    i    i    i    
G||-----------6--------|-----------6--------|--------------------|
D||--------------------|--------------------|--------------------|
A||-4--------------4---|--------------------|--------------------|
E||--------------------|-7--------------7---|-5---------5-4--2---|
    i    i    i    i     i    i    i    i     i    i    i    i    

(wait)

G||--------------------|
D||-----------4-3--6---|
A||--------------------|
E||--------------------|
    i    i    i    i    
G||-----------6--------|-----------6--------|-----------6--------|
D||--------------------|--------------------|--------------------|
A||-4--------------4---|--------------------|--------------------|
E||--------------------|-7--------------7---|-5--------------5---|
    i    i    i    i     i    i    i    i     i    i    i    i    
G||-----------6--------|--------------------|--------------------|
D||----------------8---|-6---------6----6---|-4---------4-3--6-3-|
A||--------------------|--------------------|--------------------|
E||-6------------------|--------------------|--------------------|
    i    i    i    i     i    i    i    i     i    i    i    i    
G||-----------8--------|-----------8--------|
D||-6--------------6---|--------------------|
A||--------------------|-9--------------9---|
E||--------------------|--------------------|
    i    i    i    i     i    i    i    i   
G||-----------8--------|--------------------|--------------------|
D||-6--------------6---|--------------------|-6---------8--------|
A||--------------------|-9---------9----9---|--------------------|
E||--------------------|--------------------|--------------------|
    i    i    i    i     i    i    i    i     i    i    i    i   

Pre-Chorus 2

G||-----------3--------|--------------------|
D||--------------------|-4------------------|
A||-2------------------|--------------------|
E||--------------------|--------------------|
    i    i    i    i     i    i    i    i
G||--------------------|--------------------|
D||-----------3--------|--------------------|
A||--------------------|-4------------------|
E||--------------------|--------------------|
    i    i    i    i     i    i    i    i
G||-----------3--------|--------------------|
D||--------------------|-4------------------|
A||-2------------------|--------------------|
E||--------------------|--------------------|
    i    i    i    i     i    i    i    i
G||--------------------|------------6-8\----|
D||-----------3--------|---------6----------|
A||--------------------|-4------------------|
E||--------------------|--------------------|
    i    i    i    i     i    i    i    i    
G||-----------3--------|--------------------|
D||--------------------|-4------------------|
A||-2------------------|--------------------|
E||--------------------|--------------------|
    i    i    i    i     i    i    i    i
G||--------------------|--------------------|--------------------|
D||-----------3--------|--------------------|--------------------|
A||--------------------|-4-----------6------|-4------------------|
E||--------------------|--------------------|----------46----2---|
    i    i    i    i     i    i    i    i     i    i    i    i 

Chorus 2

G||--------------------|--------------------|--------------------|
D||--------------------|--------------------|--------------------|
A||--------------------|--------------------|-6------------------|
E||-4------------------|-6------------------|--------------------|
    i    i    i    i     i    i    i    i     i    i    i    i
G||--------------------|--------------------|--------------------|
D||--------------------|--------------------|--------------------|
A||--------------------|--------------------|-9------------------|
E||-4------------------|-6------------------|--------------------|
    i    i    i    i     i    i    i    i     i    i    i    i
G||--------------------|--------------------|--------------------|
D||--------------------|--------------------|--------------------|
A||--------------------|--------------------|-6--------------4---|
E||-4------------------|-6------------------|--------------------|
    i    i    i    i     i    i    i    i     i    i    i    i
G||--------------------|--------------------|--------------------||
D||--------------------|--------------------|----------------6---||
A||--------------------|--------------------|-9-----------8------||
E||-4------------------|-6------------------|--------------------||
    i    i    i    i     i    i    i    i     i    i    i    i


-----------------------------------------------------------------------------
-----------------------------------------------------------------------------
            
Submit corrections

comments powered by Disqus
↑ Back to top | Everything Everything Bass for Leave The Engine Room. Lyrics for acoustic guitar and electric guitar. 1 Tablatures and chords are parodies/interpretations of the original songs. You may use it for private study, scholarship, research or language learning purposes only