» » »

Everything Everything, Hiawatha Doomed Bass tabs (ver.1)

Artists:  A B C D E F G H I J K L M N O P Q R S T U V W X Y Z # 

Hiawatha Doomed Bass tabs (ver.1)

Everything Everything Tabs
 Rating:
4/5 (4 votes)
Hiawatha Doomed lessons Tabs too difficult? Try these video lessons and learn fast
                



All tabs by Pedro Zappa
-----------------------------------------------------------------------------
-----------------------------------------------------------------------------


13. Hiawatha Doomed


Verse 1

(wait)

G||------------------------|--------------------|
D||-----------3-------12.12|-12-----------------|
A||-------------5----------|--------------------|
E||------------------------|--------------------|
    i    i    i    i         i    i    i    i 

(wait)

G||---------------------|--------------------||
D||-----------7-------10|-10-----------------||
A||-------------5-------|--------------------||
E||---------------------|--------------------||
    i    i    i    i      i    i    i    i

(wait)

G||--------------------|--------------------|
D||-7h8--8-8--8-8--8-7-|-7-----------7------|
A||--------------------|---5--5-5--5----5-5-|
E||--------------------|--------------------|
    i    i    i    i     i    i    i    i
G||--------------------|--------------------||
D||-7h8--8-8--8-8--8-7-|-7----------------3-||
A||--------------------|---5--5-5--5-3--5---||
E||--------------------|--------------------||
    i    i    i    i     i    i    i    i
G||--------------------|--------------------|| x2
D||-7h8--8-8--8-8--8-7-|-7-----------7------||
A||--------------------|---5--5-5--5----5-5-||
E||--------------------|--------------------||
    i    i    i    i     i    i    i    i
G||--------------------|--------------------||
D||-7h8--8-8--8-8--8-7-|-7----------------3-||
A||--------------------|---5--5-5--5-3--5---||
E||--------------------|--------------------||
    i    i    i    i     i    i    i    i
G||--------------------|-------------5------|
D||-7h8--8-8--8-7------|------3-5--7----7---|
A||----------------8-5-|-3-5----------------|
E||--------------------|--------------------|
    i    i    i    i     i    i    i    i

G||--------------------|--------------------|
D||--------------------|--------------------|
A||--------------------|--------5----5----5-|
E||--------------------|--------------------|
    i    i    i    i     i    i    i    i
G||--------------------|--------------------|
D||-7h8--8-8--8-8--8-7-|-7-----------7------|
A||--------------------|---5--5-5--5----5-5-|
E||--------------------|--------------------|
    i    i    i    i     i    i    i    i
G||--------------------|--------------------|
D||-7h8--8-8--8-8--8-7-|-7----------------3-|
A||--------------------|---5--5-5--5-3--5---|
E||--------------------|--------------------|
    i    i    i    i     i    i    i    i
G||--------------------|-------------5------|
D||-7h8--8-8--8-7------|------3-5--7----7---|
A||----------------8-5-|-3-5----------------|
E||--------------------|--------------------|
    i    i    i    i     i    i    i    i

(wait) 

Chorus 1

G||--------------------|
D||-----------16\------|
A||--------------------|
E||----------------0/--|
    i    i    i    i
G||--------------------|--------------------|
D||--------------------|--------------------|
A||--------4-----------|--------9----6------|
E||-5-----------5----5-|-7----------------7-|
    i    i    i    i     i    i    i    i
G||--------------------|--------------------|
D||--------------------|--------------------|
A||--------7----6----4-|--------------------|
E||-9------------------|-2/---6------2--2-2-|
    i    i    i    i     i    i    i    i
G||--------------------|--------------------|
D||--------------------|--------------------|
A||--------4-----------|--------6----9------|
E||-5-----------5----5-|-7----------------x-|
    i    i    i    i     i    i    i    i
G||--------------------|--------------------|
D||--------------------|------------------8-|
A||--------7----6------|-------------9------|
E||-9----------------x-|-2/---6-------------|
    i    i    i    i     i    i    i    i

G||--------------------|--------------------|
D||---7----7----7----7-|---9----9----9----9\|
A||--------------------|--------------------|
E||--------------------|--------------------|
    i    i    i    i     i    i    i    i
G||--------------------|--------------------|
D||---2----2----2----2-|-4-4--4-2--2-4--4---|
A||--------------------|--------------------|
E||--------------------|--------------------|
    i    i    i    i     i    i    i    i

(wait)

Verse 2

G||--------------------|-------------7------|
D||-7h8--8-8--8-8--8-7-|-7------------------|
A||--------------------|---5--5-5--5----5-5-|
E||--------------------|--------------------|
    i    i    i    i     i    i    i    i
G||--------------------|--------------------|
D||-7h8--8-8--8-8--8-7-|-7------------------|
A||--------------------|---5--5-5--5-8--7-5-|
E||--------------------|--------------------|
    i    i    i    i     i    i    i    i
G||--------------------|--------------------||
D||-7h8--8-8--8-8--8-7-|-7----------------3-||
A||--------------------|---5--5-5--5-3--5---||
E||--------------------|--------------------||
    i    i    i    i     i    i    i    i
G||--------------------|-------------5------|
D||-7h8--8-8--8-7------|------3-5--7----7---|
A||----------------8-5-|-3-5----------------|
E||--------------------|--------------------|
    i    i    i    i     i    i    i    i

G||--------------------|--------------------|
D||------------------3-|--------3---------3-|
A||----------------35--|---5--5------5--5---|
E||--------------------|--------------------|
    i    i    i    i     i    i    i    i
G||--------------------|--------------------|
D||-7h8--8-8--8-7----7-|--------7-----------|
A||----------------8---|---5--5------5--5-5-|
E||--------------------|--------------------|
    i    i    i    i     i    i    i    i
G||--------------------|--------------------|
D||-7h8--8-8--8-7----10|---7----10---7------|
A||----------------8---|------8---------8-7-|
E||--------------------|--------------------|
    i    i    i    i     i    i    i    i
G||--------------------|-------------5------|
D||---8--8-8--8-7------|------3-5--7----7---|
A||-5--------------8-5-|-3-5----------------|
E||--------------------|--------------------|
    i    i    i    i     i    i    i    i

(wait) 

Chorus 2

G||--------------------|
D||-----------16\------|
A||--------------------|
E||----------------0/--|
    i    i    i    i
G||--------------------|--------------------|
D||--------------------|--------------------|
A||--------4-----------|--------9----6------|
E||-5-----------5----5-|-7----------------7-|
    i    i    i    i     i    i    i    i
G||--------------------|--------------------|
D||--------------------|--------------------|
A||--------7----6----4-|--------------------|
E||-9------------------|-2/---6------2--2-2-|
    i    i    i    i     i    i    i    i
G||--------------------|--------------------|
D||--------------------|--------------------|
A||--------4-----------|--------9----6------|
E||-5-----------5----5-|-7----------------x-|
    i    i    i    i     i    i    i    i
G||--------------------|--------------------|
D||--------------------|------------------8-|
A||--------7----6------|-------------9------|
E||-9----------------x-|-2/---6-------------|
    i    i    i    i     i    i    i    i

G||--------------------|--------------------|
D||---7----7----7----7-|---9----9----9----9\|
A||--------------------|--------------------|
E||--------------------|--------------------|
    i    i    i    i     i    i    i    i
G||--------------------|--------------------|
D||---2----2----2----2-|-4-4--4-2--2-4--4---|
A||--------------------|--------------------|
E||--------------------|--------------------|
    i    i    i    i     i    i    i    i

G||--------------------|--------------------|
D||-7-7--7-7--7-7--7-7-|-9-9--9-9--9-9--9-9-|
A||--------------------|--------------------|
E||--------------------|--------------------|
    i    i    i    i     i    i    i    i
G||--------------------|--------------------|
D||--------------------|--------------------|
A||-7-7--7-7--7-6--4---|--------------------|
E||------------------0-|-2-2--2-0--0-2--2---|
    i    i    i    i     i    i    i    i

G||--------------------|--------------------|
D||-7-7--7-7--7-7--7-7-|-9-9--9-9--9-9--9-9-|
A||--------------------|--------------------|
E||--------------------|--------------------|
    i    i    i    i     i    i    i    i
G||--------------------|--------------------|
D||--------------------|--------------------|
A||-7-7--7-7--7-6--4---|-9-9--9-7--7-9--9-11|
E||------------------0-|--------------------|
    i    i    i    i     i    i    i    i

Outro

(wait)

G||--------------------|--------------------|
D||--------------------|--------------------|
A||-0h1--1-1---------5-|-5-5--5-5--5-3--0-3-|
E||-----------1-1--1---|--------------------|
    i    i    i    i     i    i    i    i
G||--------------------|--------------------||
D||--------------------|--------------------||
A||-0h1--1-1---------5-|-5-5--5-5--5-0--3-5-||
E||-----------1-1--1---|--------------------||
    i    i    i    i     i    i    i    i
G||--------------------|--------------------||  x2
D||--------------------|--------------------||
A||-0h1--1-1---------5-|-5-5--5-5--5-3--0-3-||
E||-----------1-1--1---|--------------------||
    i    i    i    i     i    i    i    i


-----------------------------------------------------------------------------
-----------------------------------------------------------------------------
            
Submit corrections

comments powered by Disqus
↑ Back to top | Everything Everything Bass for Hiawatha Doomed. Lyrics for acoustic guitar and electric guitar. Tablatures and chords are parodies/interpretations of the original songs. You may use it for private study, scholarship, research or language learning purposes only