» » »

Everybody Else, In Memoriam Tabs (ver.1)

Artists:  A B C D E F G H I J K L M N O P Q R S T U V W X Y Z # 

In Memoriam Tabs (ver.1)

Everybody Else Tabs
Rating:
3/5 (1 vote)
In Memoriam lessons Tabs too difficult? Try these video lessons and learn fast
                -------------------------------------------------------------------------------
-------------------------------------------------------------------------------

Tuning: Standard


Intro:
e|-----3--------3----------------------------------------------------|
B|----------------------4-------4------------------------------------|
G|---3---3----3---3---0---0---0---0-----5-------5------1------7------|
D|-1--------0--------------------------------------------------------|
A|------------------3-------1---------6---6---6--6---3--3---8--8-----|
E|----------------------------------4-------3------1------6----------|


Verse:
Basically, the chord progression is D# Cm G# A#
You can either STRUM them or pluck them as powerchords like so
e|---------------------------------|
B|---------------------------------|
G|-----8-------5-------------------|
D|-----8-------5-------6------8----|
A|--6-----6-3-----3----6------8----|
E|------------------4----4-6-------|

Sounds better with a bass player so get one'em.

D#          Cm         G#        A#
     took a sip from a bottle of orange soda
D#         Cm          G#       A#
     suddenly you were back
D#         Cm         G#
     on my bike years ago
      A#
while sharing the camera
G#(strum)           A#(strum)
     you passed by, so quickly


Chorus:
Use the same chords but to get it sound more like the sound track, play the first 3
twice the whole chord once, and then the first 3 strings again in a short short long long
Sound confusing? I thought so. It wouldn't be if you listened to the song. But if you 
need to, check this:

e|--------6-------------3-------------4-------------6-----|
B|--------8-------------4-------------4-------------6-----|
G|--8-8---8--8--8-5-5---5--5--5-------5-------------7-----|
D|--8-8---8--8--8-5-5---5--5--5-6-6---6--6--6-8-8---8-----|
A|--6-6---6--6--6-3-3---3--3--3-6-6---6--6--6-8-8---8-----|
E|------------------------------4-4---4--4--4-6-6---6-----|

That's all I think you need to know to play the entire song. Have fun.
            
Submit corrections

comments powered by Disqus
↑ Back to top | Everybody Else Tabs for In Memoriam. Lyrics for acoustic guitar and electric guitar. Tablatures and chords are parodies/interpretations of the original songs. You may use it for private study, scholarship, research or language learning purposes only