>
 >
I Gotta Run

I Gotta Run Bass Tabs

Everybody Else - I Gotta Run chords, tabs, tablatures, lyrics

Guitar lessons | Add/correct | Request | Top 50 tabs Artists:  A B C D E F G H I J K L M N O P Q R S T U V W X Y Z 0-9

I Gotta Run Bass Tabs – Everybody Else

CD, Sheet music, Poster

Do you like I Gotta Run? Share with your friends now
Bass Tabs
-----------------------------------------------------------------------------
-----------------------------------------------------------------------------


[Verse 1] (0:15)

G|------------------------------------------------------------------|
D|-----------------------------------------36--66-------------------|
A|----------66-6--55------36--66-6---36--44------74----58----58-----|
E|-6666-666---6-----63--44------6--33----------------66----66---666-|

[Chorus] (0:34)

G|-----------------------------------------|
D|-----------------------------------------|
A|-----------88-68-868-----------6-66-5-55-| x2
E|-88-68-868-----------66-46-646-----------|

G|-----------------------------------------|
D|-----------------------------------------|
A|-----------88-68-868---------------------| 
E|-88-68-868-----------66-46-64666-46-646--|

[Verse 2] (0:55)

G|-----------------------------------------------------|
D|--------------------------------36--66---------------|
A|-66-6--55------36--66-6---36--44------74----58----58-|
E|---6-----63--44------6--33----------------66----66---|

G|---------------------------------------------------------|
D|---------------25---------------36--66-------------------|
A|-66-6----58--22----66-6---36--44------74----58----58-----|
E|---6---66------------6--44----------------66----66---666-|

[Chorus] (1:28)

G|-----------------------------------------|
D|-----------------------------------------|
A|-----------88-68-868-----------6-66-5-55-| x2
E|-88-68-868-----------66-46-646-----------|

G|-----------------------------------------|
D|-----------------------------------------|
A|-----------88-68-868---------------------| 
E|-88-68-868-----------66-46-64666-46-646--|

[Bridge] (1:50)

G|-----------------|
D|----5588-------5-|
A|-6-6-------------| x4
E|---------6-6656--|

G|------------------------------------|
D|----999-----1010108----5588---------|
A|--------------------6-6-------------|
E|-7-7---7-8-8----------------6-66566-|

[Guitar Solo] (2:12)

G|--------------------------------------|
D|--------------------------------------|
A|-66-66666-55---------3666666-66-66666-|
E|---6--------633333-44----------6------|

G|--------------------------------------|
D|------------366666-66-----------------|
A|---366666-44---------744444---588888--|
E|-33------------------------66-------6-|

[Ending] (2:29)

G|-----------------------------------------|
D|-----------------------------------------|
A|-----------88-68-868-----------6-66-5-55-| x2
E|-88-68-868-----------66-46-646-----------|

G|-----------------------------------------|
D|-----------------------------------------|
A|-----------88-68-868---------------------| 
E|-88-68-868-----------66-46-64666-46-646--|

| /  slide up
| \  slide down
| h  hammer-on
| p  pull-off
| ~  vibrato
| +  harmonic
| x  Mute note
=============================================================================





Comments


Popular Everybody Else tabs & chords
Makeup Bass Tabs
Button For Punishment Chords
In Memoriam Chords
In Memoriam 1 Chords
Make Up Chords
In Memoriam Tabs
Meat Market Tabs
Button For Punishment Ukulele
In Memoriam Ukulele
Make Up Ukulele


Song lyrics



↑ Back to top | Tablatures and chords are parodies/interpretations of the original songs. You may use it for private study, scholarship, research or language learning purposes only
© 2014 AZChords.com Contact us | Privacy policy | DMCA | Add/correct tabs | Request tabs | Top 50 tabs