» » »

Everly Brothers, Charlie Brown Bass tabs (ver.1)

Artists:  A B C D E F G H I J K L M N O P Q R S T U V W X Y Z # 

Charlie Brown Bass tabs (ver.1)

Everly Brothers Tabs
Rating:
0/5 (0 votes)
Charlie Brown lessons Tabs too difficult? Try these video lessons and learn fast
                Fingering and positions as suggested by TablEdit, please use common sense.

Charlie Brown- Everly Brothers


Tuning : E A D G 	Time Signature: 4/4

 |   |   |   |    |   |   |   |    |   |   |   |    |   |   |   |    
|--------0-0-----|----------------|--------3-------|----3-----7-5-7-|
|----2-------2---|----0---3-3-0---|3---------------|3-3-----3-------|
|3-------------3-|1-------------1-|----------------|----------------|
|----------------|----------------|----------------|----------------|

 |   |   |   |    |   |   |   |    |   |   |   |    |   |   |   |    
|5-------5-------|5-------5-------|5-------5-------|5---------------|
|3-------3-------|3-------3-------|3-------3-------|3-------3-1-0---|
|----------------|----------------|----------------|--------------3-|
|----------------|----------------|----------------|----------------|

 |   |   |   |    |   |   |   |    |   |   |   |    |   |   |   |    
|----------------|----------------|----2---5---2-5-|----2---5---2-5-|
|----0---3---0-3-|----0---3-------|3---------------|3---------------|
|1---------------|1-----------1---|----------------|----------------|
|----------------|----------------|----------------|----------------|

 |   |   |   |    |   |   |   |    |   |   |   |    |   |   |   |    
|--------0-0-----|----------------|----------------|----------7-5-7-|
|----2-------2---|----0---3-3-0---|3---------------|----------------|
|3-------------3-|1-------------1-|----------------|----------------|
|----------------|----------------|----------------|----------------|

 |   |   |   |    |   |   |   |    |   |   |   |    |   |   |   |    
|5-------5-------|5-------5-------|5-------5-------|5---------------|
|3-------3-------|3-------3-------|3-------3-------|3-------3-1-0---|
|----------------|----------------|----------------|--------------3-|
|----------------|----------------|----------------|----------------|

 |   |   |   |    |   |   |   |    |   |   |   |    |   |   |   |    
|----------------|----------------|----2---5---2-5-|----2---5---2-5-|
|----0---3---0-3-|----0---3-------|3---------------|3---------------|
|1---------------|1-----------1---|----------------|----------------|
|----------------|----------------|----------------|----------------|

 |   |   |   |    |   |   |   |    |   |   |   |    |   |   |   |    
|--------0-0-----|----------------|----------------|------------0-2-|
|----2-------2---|----0---3-3-0---|3---------------|----------3-----|
|3-------------3-|1-------------1-|----------------|----------------|
|----------------|----------------|----------------|----------------|

 |   |   |   |    |   |   |   |    |   |   |   |    |   |   |   |    
|3---7---10--7-10|3---10--7---3---|1---5---8---5-8-|1---8---5---1---|
|----------------|----------------|----------------|----------------|
|----------------|----------------|----------------|----------------|
|----------------|----------------|----------------|----------------|

 |   |   |   |    |   |   |   |    |   |   |   |    |   |   |   |    
|3---7---10--7-10|3---7---10--7-10|5---------------|----------------|
|----------------|----------------|----------------|----------------|
|----------------|----------------|----3---3-------|----3-3-3-------|
|----------------|----------------|----------------|----------------|

 |   |   |   |    |   |   |   |    |   |   |   |    |   |   |   |    
|5-------5-------|5-------5-------|5-------5-------|5---------------|
|3-------3-------|3-------3-------|3-------3-------|3-------3-1-0---|
|----------------|----------------|----------------|--------------3-|
|----------------|----------------|----------------|----------------|

 |   |   |   |    |   |   |   |    |   |   |   |    |   |   |   |    
|----------------|----------------|----2---5---2-5-|----2---5---2-5-|
|----0---3---0-3-|----0---3-------|3---------------|3---------------|
|1---------------|1-----------1---|----------------|----------------|
|----------------|----------------|----------------|----------------|

 |   |   |   |    |   |   |   |    |   |   |   |    |   |   |   |    
|--------0-0-----|----------------|----------------|------------5-7-|
|----2-------2---|----0---3-3-0---|3---------------|----------------|
|3-------------3-|1-------------1-|----------------|----------------|
|----------------|----------------|----------------|----------------|

 |   |   |   |    |   |   |   |    |   |   |   |    |   |   |   |    
|5-------5-------|5-------5-------|5-------5-------|5---------------|
|3-------3-------|3-------3-------|3-------3-------|3-------3-1-0---|
|----------------|----------------|----------------|--------------3-|
|----------------|----------------|----------------|----------------|

 |   |   |   |    |   |   |   |    |   |   |   |    |   |   |   |    
|----------------|----------------|----2---5---2-5-|----2---5---2-5-|
|----0---3---0-3-|----0---3-------|3---------------|3---------------|
|1---------------|1-----------1---|----------------|----------------|
|----------------|----------------|----------------|----------------|

 |   |   |   |    |   |   |   |    |   |   |   |    |   |   |   |    
|--------0-0-----|----------------|----------------|----------7-5-7-|
|----2-------2---|----0---3-3-0---|3---------------|----------------|
|3-------------3-|1-------------1-|----------------|----------------|
|----------------|----------------|----------------|----------------|

 |   |   |   |    |   |   |   |    |   |   |   |    |   |   |   |    
|5-------5-------|5-------5-------|5-------5-------|5---------------|
|3-------3-------|3-------3-------|3-------3-------|3-------3-1-0---|
|----------------|----------------|----------------|--------------3-|
|----------------|----------------|----------------|----------------|

 |   |   |   |    |   |   |   |    |   |   |   |    |   |   |   |    
|----------------|----------------|----2---5---2-5-|----2---5---2-5-|
|----0---3---0-3-|----0---3-------|3---------------|3---------------|
|1---------------|1-----------1---|----------------|----------------|
|----------------|----------------|----------------|----------------|

 |   |   |   |    |   |   |   |    |   |   |   |    |   |   |   |    
|--------0-0-----|----------------|----------------|------------0-2-|
|----2-------2---|----0---3-3-0---|3---------------|----------3-----|
|3-------------3-|1-------------1-|----------------|----------------|
|----------------|----------------|----------------|----------------|

 |   |   |   |    |   |   |   |    |   |   |   |    |   |   |   |    
|3---7---10--7-10|3---10--7---3---|1---5---8---5-8-|1---8---5---1---|
|----------------|----------------|----------------|----------------|
|----------------|----------------|----------------|----------------|
|----------------|----------------|----------------|----------------|

 |   |   |   |    |   |   |   |    |   |   |   |    |   |   |   |    
|3---7---10--7-10|3---7---10--7-10|5---------------|----------------|
|----------------|----------------|----------------|----------------|
|----------------|----------------|----3---3-------|----3-3-3-------|
|----------------|----------------|----------------|----------------|

 |   |   |   |    |   |   |   |    |   |   |   |    |   |   |   |    
|5-------5-------|5-------5-------|5-------5-------|5---------------|
|3-------3-------|3-------3-------|3-------3-------|3-------3-1-0---|
|----------------|----------------|----------------|--------------3-|
|----------------|----------------|----------------|----------------|

 |   |   |   |    |   |   |   |    |   |   |   |    |   |   |   |    
|----------------|----------------|----2---5---2-5-|----2---5---2-5-|
|----0---3---0-3-|----0---3-------|3---------------|3---------------|
|1---------------|1-----------1---|----------------|----------------|
|----------------|----------------|----------------|----------------|

 |   |   |   |    |   |   |   |    |   |   |   |    |   |   |   |    
|--------0-0-----|----------------|----------------|------------10--|
|----2-------2---|----0---3-3-0---|3---------------|------------3---|
|3-------------3-|1-------------1-|----------------|----------------|
|----------------|----------------|----------------|----------------|
            

comments powered by Disqus
↑ Back to top | Everly Brothers Bass for Charlie Brown. Lyrics for acoustic guitar and electric guitar. Tablatures and chords are parodies/interpretations of the original songs. You may use it for private study, scholarship, research or language learning purposes only