» » »

Ends Tabs (ver.1)

Artists:  A B C D E F G H I J K L M N O P Q R S T U V W X Y Z # 

Ends Tabs (ver.1)

Everlast
Rating:
0/5 (0 votes)

Hard to play? Try these video lessons and learn fast.
                Ends by Everlast 
   from the album Whitey Ford Sings the Blues 

   The right way to play it. It's such a simple song, i don't know why 
   i've seen so many screwed up tabs out there 

   Capo on 3 
   everything is played relative to the capo 

   Chorus/intro: E, E, D, C 

   Fill: 
   E------------- 
   B------------- 
   G------0------ 
   D------------- 
   A--0h2-------- 
   E------------- 

   Verse: 
   E---0---0--0-0--0-0-0----0--0--0-0-0-0-00-0----- 
   B---0---0--0-0--0-0-0----2--2--2-2-2-3-22-0----- 
   G---1---1--1-1--1-1-1----2--2--2-2-2-2-22-2----- 
   D---2---2--2-2--2-2-2----2--2--2-2-2-2-22-2----- 
   A---2---2--2-2--2-2-2----0--0--0-0-0-0-00-0----- 
   E---0---0--0-0--0-0-0--------------------------- 

   fILL 2: 
   E---------- 
   B---------- 
   G------0--- 
   D------0--- 
   A--0h2----- 
   E---------- 

   Bridge: 
   E--------------- --------------------------------------- 
   B----2p0------0- ----2p0-------0--------2p0------0------ 
   G----2p0------0- (2X) ----2p0-----2-0--------2p0------0------ 
   D-0h2---2p0-2--- -0h2----2p0---------0h2----2p0-2------- 
   A--------------- --------------------------------------- 
   E--------------- --------------------------------------- 

   E-------------------------------------------------------------------------- 
   B----2p0---------------2p0------0--------2p0------0--------2p0-----------0- 
   G----2p0----4-2--------2p0----2-0--------2p0------0--------2p0-----------0- 
   D-0h2---2p0---------0h2---2p0---------0h2---2p0-2-------0h2---2p0-2-------- 
   A-------------------------------------------------------------------------- 
   E-------------------------------------------------------------------------- 
            
Hard to play? Try these video lessons and learn fast. | Correct




comments powered by Disqus
↑ Back to top | Tablatures and chords are parodies/interpretations of the original songs. You may use it for private study, scholarship, research or language learning purposes only