» » »

Evergrey, Mark Of The Triangle Bass tabs (ver.1)

Artists:  A B C D E F G H I J K L M N O P Q R S T U V W X Y Z # 

Mark Of The Triangle Bass tabs (ver.1)

Evergrey Tabs
 Rating:
4/5 (4 votes)
Mark Of The Triangle lessons Tabs too difficult? Try these video lessons and learn fast
1
                
MARK OF THE TRIANGLE (Bassline)
As recorded by Evergrey
(From the 2001 Album IN SEARCH OF TRUTH)

	

Words and Music by Evergrey

Gtr I (B E A D G) - 'Picked Bass'

   Intro
    Q=65
   4/4
    Gtr I
                   ~~~
    S S E Q  a  S  E. a  Q     S  S  E  +Q   S E. E E
||--------------------------|-------------------------|
||o-------------------------|-------------------------|
||--------------------9s12--|-10-10-10-(10)--9-9--7s5-|
||o-5-7-7----7s10-10--------|-------------------------|
||--------0-----------------|-------------------------|


          ~
  S S E a Q  S E. Q    S S E +Q   S E. E E
|--------------------|------------------------||
|--------------------|-----------------------o||
|------------5-5--4--|-----------------7S5----||
|-5-7-7-5s7----------|-3-3-3-(3)--2-2--------o||
|--------------------|------------------------||


   Chorus
    Q=130
    $
    S S e e S S e e S S e   e S S e e S S S S S S S S
||------------------------|---------------------------|
||o-----------------------|---------------------------|
||--2-0-2-2-2-0-2-2-2-0-2-|-2-2-0-2-2-2-0-2-5-2-0-2-4-|
||o-----------------------|---------------------------|
||------------------------|---------------------------|


  S S e e S S e e S S e   e S S e e S S S S S S S S
|-----------------------|------------------------------||
|-----------------------|-----------------------------o||
|-2-0-2-2-2-0-2-2-2-0-2-|-2-2-0-2-2-2-0-2-4-5-4-2-0----||
|-----------------------|-----------------------------o||
|-----------------------|------------------------------||


                                                                    To Coda
    E. e. e e. e. e   S S e. e. e. e. e   E. e. e e. e. e   e. e. e S S Q.
||------------------|-------------------|-----------------|-------------------||
||o-----------------|-------------------|-----------------|------------------o||
||--2--2--2-2--2--2-|-2-2-2--2--2--2--2-|-2--2--2-2--2--2-|-2--2--2-5h7-5-----||
||o-----------------|-------------------|-----------------|------------------o||
||------------------|-------------------|-----------------|-------------------||


 Verse
  Q=65
  S S e Q  S e S E E   S S e Q  S e S E S S
|--------------------|----------------------|
|--------------------|----------------------|
|--------------------|----------------------|
|--------------5s7-5-|-3-3-3----3-3---------|
|-0-0-0----0-0-------|--------------5s7-5s3-|


  S S e Q  S e S E E    E. E. E. E. E E
|--------------------|-------------------|
|--------------------|-------------------|
|--------------------|----------------5--|
|--------------5s7-9-|-10--9--7--5--3----|
|-0-0-0----0-0-------|-------------------|


  S S e Q  S S Q.     S S e Q  S S E a Q
|-------------------|---------------------|
|-------------------|---------------------|
|-------------------|---------------------|
|-------------------|-3-3-3----3-3---3s5--|
|-0-0-0----0-0------|---------------------|


  S S e Q  S S Q.     a  S  S  S E. E. E. Q
|-------------------|------------------------|
|-------------------|------------------------|
|-------------------|------------------------|
|-------------------|-7s10-10-10-9--7--5--3--|
|-0-0-0----0-0------|------------------------|


 Pre-Chorus
  Q=130
  E E E E E E E E   E E E E E E E E   E E E E E E E E   E E E E Q  Q
|-----------------|-----------------|-----------------|----------------|
|-----------------|-----------------|-----------------|----------------|
|-2-2-2-2---2-2-2-|---2-2-2---2-2-2-|-0-0-0-0---0-0-0-|---0-0-0----0---|
|-----------------|-----------------|-----------------|----------------|
|-----------------|-----------------|-----------------|----------------|


                                                            D.S. al Coda
  Q.   a Q.   Q    +E  Q.   E E E E   Q.   a Q.   Q    +E  Q.   E E E E
|----------------|------------------|----------------|-------------------|
|----------------|------------------|----------------|-------------------|
|------5s7----5--|-(5)-4----5-4---4-|------5s7----5--|-(5)-4----5-4-5-7--|
|-3--------------|--------------5---|-0--------------|-------------------|
|----------------|------------------|----------------|-------------------|


 Verse
  &
  E E E E E E E E   E E E E E E E E   E E E E E E E E   E E E E E E Q
|-----------------|-----------------|-----------------|-----------------|
|-----------------|-----------------|-----------------|-----------------|
|-----------------|-----------------|-----------------|-------------7---|
|-7-7-7-7-7-7-7-7-|-7-7-7-7-2-2-2-2-|-3-3-3-3-3-3-3-3-|-3s5-5s3-7-5-----|
|-----------------|-----------------|-----------------|-----------------|


  E E E E E E E E   E E E E E E E E   E E E E E E E E   E E E E E E E E
|-----------------|-----------------|-----------------|------------------|
|-----------------|-----------------|-----------------|------------------|
|-----------------|-----------------|-----------------|---5-----5-4-5-7--|
|-7-7-7-7-7-7-7-7-|-7-7-7-7-2-2-2-2-|-3-3-3-3-3-3-3-3-|-3---2-3----------|
|-----------------|-----------------|-----------------|------------------|


   Interlude
    E E E E E E E E   E E E E E E E E   E E E E E E E E   E E E E E E E E
||------------------|-----------------|-----------------|------------------||
||o-----------------|-----------------|-----------------|-----------------o||
||------------------|-----------------|-----------------|------------------||
||o-7-7-7-7-7-7-7-7-|-7-7-7-7-7-7-7-7-|-3-3-3-3-3-3-3-3-|-3-3-3-3-3-3-3-3-o||
||------------------|-----------------|-----------------|------------------||


    E=130
   12/8
    Q.   a  E E S S  E E  E  E E  E
||----------------------------------|
||o---------------------------------|
||----------------------------------|
||o-7----7s10-9-7s9-10-9-10---------|
||--------------------------10-7-10-|


  1.                                       2.
  Q.   a  E E S S  E  a  E  E  E  E  E     Q.   a  E E E  Q   E  E  E  E
|--------------------16s18-19-14----14--||-------------------------14-14-|
|--------------------------------16----o||-------------------------------|
|---------------------------------------||----------------------12-12-12-|
|-7----7s10-9-7s9-12-------------------o||-7----7s10-9-7-10--10----------|
|---------------------------------------||-------------------------------|


 Pre-Chorus
  Q=130
 4/4
  E E E E E E E E   E E E E E E E E   E E E E E E E E   E E E E Q  Q
|-----------------|-----------------|-----------------|---------------|
|-----------------|-----------------|-----------------|---------------|
|-2-2-2-2---2-2-2-|---2-2-2---2-2-2-|-0-0-0-0---0-0-0-|---0-0-0----0--|
|-----------------|-----------------|-----------------|---------------|
|-----------------|-----------------|-----------------|---------------|


  Q.   a Q.   Q    +E  Q.   E E E E   Q.   a Q.   Q    +E  Q.   E E E E
|----------------|------------------|----------------|-------------------|
|----------------|------------------|----------------|-------------------|
|------5s7----5--|-(5)-4----5-4---4-|------5s7----5--|-(5)-4----5-4-5-7--|
|-3--------------|--------------5---|-0--------------|-------------------|
|----------------|------------------|----------------|-------------------|


   Chorus
    Q=130
    $$
   4/4
    S S e e S S e e S S e   e S S e e S S S S S S S S
||------------------------|---------------------------|
||o-----------------------|---------------------------|
||--2-0-2-2-2-0-2-2-2-0-2-|-2-2-0-2-2-2-0-2-5-2-0-2-4-|
||o-----------------------|---------------------------|
||------------------------|---------------------------|


                                      To Dbl. Coda
  S S e e S S e e S S e   e S S e e S S S S S S S S
|-----------------------|----------------------------||
|-----------------------|---------------------------o||
|-2-0-2-2-2-0-2-2-2-0-2-|-2-2-0-2-2-2-0-2-4-5-4-2-0--||
|-----------------------|---------------------------o||
|-----------------------|----------------------------||


                                                         1.
    E. e. e e. e. e   e. e. e e. e. e   E. e. e e. e. e   e. e. e S S Q.
||------------------|-----------------|-----------------|-------------------||
||o-----------------|-----------------|-----------------|------------------o||
||--2--2--2-2--2--2-|-2--2--2-2--2--2-|-2--2--2-2--2--2-|-2--2--2-5h7-5-----||
||o-----------------|-----------------|-----------------|------------------o||
||------------------|-----------------|-----------------|-------------------||


  2.                           Q=65
  S S S S S S S S S S S S Q    W          H..       E
|----------------------------|----------|---------------|
|-0-2-0----------------------|----------|---------------|
|-------4-5-4----------------|----------|---------------|
|-------------2-5-3-2-0-2----|----------|-----------7\--|
|-------------------------0--|----------|---------------|


   Guitar Solo
    Q=130
    E E E E E Q.     +E  E E E E E Q    E E E E E Q.     +E  E E E E E Q   4x
||-----------------|------------------|----------------|-------------------||
||o-----7----------|-------4-5--------|-----7----------|-----------7------o||
||----5-----4-5----|-(5)-5-------4-5--|---5-----4-5----|-(5)-4-5-4---7-5---||
||o-7-----5--------|-----------0------|-7-----5--------|------------------o||
||-----------------|------------------|----------------|-------------------||


  E=130
 12/8
  H    +E  S S Q.   a Q.     H.      S S S S S S S S S S S S
|--------------------------|---------------------------------|
|--------------------------|---------------------------------|
|--------------------------|---------5-4---4-5-4-7-5-4-5-7-5-|
|-7----(7)-7-5-3----3s5----|-7-----------7-------------------|
|--------------------------|---------------------------------|


  H    +E  S S Q.   a E E E
|---------------------------|
|---------------------------|
|-----------------------4---|
|-7----(7)-7-5-3----3s5---5-|
|---------------------------|


  H    +E  T T S Q  E Q.     H.      Q.   Q.     H.      E S S E E E E
|--------------------------|-------------------|-----------------------|
|--------------------------|-------------------|-------------------7---|
|----------2h4p2-----------|-------------------|-----------2s5-4-----7-|
|-7----(7)-------3--0-5----|-7-------3----2----|-7-------3-------5-----|
|--------------------------|-------------------|-----------------------|


   a  Q.   Q.   Q.   Q.     H.      Q.   Q.
|-------------------------|-------------------|
|-------------------------|-------------------|
|-10s14-------------------|-------------------|
|----------7----3----2----|-7-------3----2----|
|-------------------------|-------------------|


                          D.S.S. al Dbl. Coda
  H.      Q.   Q.     H    +E  T T S Q.   Q.
|-------------------|--------------------------|
|-------------------|--------------------------|
|-------------------|----------2h4p2-----------|
|-7-------3----2----|-7----(7)-------3----2----|
|-------------------|--------------------------|


   Chorus
    Q=130
    &&
   4/4
    E. e. e e. e. e   e. e. e e. e. e   E. e. e e. e. e   e. e. e S S Q.
||------------------|-----------------|-----------------|-------------------||
||o-----------------|-----------------|-----------------|------------------o||
||--2--2--2-2--2--2-|-2--2--2-2--2--2-|-2--2--2-2--2--2-|-2--2--2-5h7-5-----||
||o-----------------|-----------------|-----------------|------------------o||
||------------------|-----------------|-----------------|-------------------||


   Outro
                        1.,2.,3.
    Q  S S E E S S E E   S S E E S S E S S E S S  3x
||---------------------|--------------------------||
||o--------------------|-------------------------o||
||--2--2-2-2-2-2-2-2-2-|-2-2-2-2-2-2-2-2-2-2-2-2--||
||o--------------------|-------------------------o||
||---------------------|--------------------------||


  4.                 Q=65
  S S E Q  E. e. e   W          W          W          W
|------------------|----------|----------|----------|------*|
|------------------|----------|----------|----------|------*|
|-2-2-2-2--2--2--2-|-2--------|-2--------|-2--------|-2----*|
|------------------|----------|----------|----------|------*|
|------------------|----------|----------|----------|------*|



Duration Legend
---------------
W - whole; H - half; Q - quarter; E - 8th; S - 16th; T - 32nd; X - 64th; a - acciaccatura
+ - note tied to previous; . - note dotted; .. - note double dotted
Uncapitalized letters represent notes that are staccato (1/2 duration)
Irregular groupings are notated above the duration line
Duration letters will always appear directly above the note/fret number it represents the
duration for.  Duration letters with no fret number below them represent rests.  Multi-
bar rests are notated in the form Wxn, where n is the number of bars to rest for.  Low
melody durations appear below the staff

Tablature Legend
----------------
 h   - hammer-on
 p   - pull-off
 b   - bend
 pb  - pre-bend
 r   - bend release (if no number after the r, then release immediately)
 /\  - slide into or out of (from/to "nowhere")
 s   - legato slide
 S   - shift slide
 - natural harmonic
[n]  - artificial harmonic
n(n) - tapped harmonic
 ~   - vibrato
 tr  - trill
 T   - tap
 TP  - trem. picking
 PM  - palm muting
\n/  - tremolo bar dip; n = amount to dip
 \n  - tremolo bar down
 n/  - tremolo bar up
/n\  - tremolo bar inverted dip
 =   - hold bend; also acts as connecting device for hammers/pulls
 <> - volume swell (louder/softer)
 x   - on rhythm slash represents muted slash
 o   - on rhythm slash represents single note slash

Misc Legend
-----------
 |  - bar
||  - double bar
||o - repeat start
o|| - repeat end
*|  - double bar (ending)
 :  - bar (freetime)
 $  - Segno
 &  - Coda
Tempo markers -  = BPM(8/16=s8/s16), where s8 = swing 8ths, s16 = swing 16ths
            
Submit corrections

comments powered by Disqus
↑ Back to top | Evergrey Bass for Mark Of The Triangle. Lyrics for acoustic guitar and electric guitar. 1 Tablatures and chords are parodies/interpretations of the original songs. You may use it for private study, scholarship, research or language learning purposes only