>
 >
In The Wake Of The Weary

In The Wake Of The Weary Guitar Tabs

Evergrey - In The Wake Of The Weary chords, tabs, tablatures, lyrics

Guitar lessons | Add/correct | Request | Top 50 tabs Artists:  A B C D E F G H I J K L M N O P Q R S T U V W X Y Z 0-9

In The Wake Of The Weary Guitar Tabs – Evergrey

CD, Sheet music, Poster

Do you like In The Wake Of The Weary? Share with your friends now
Tabs
----------------------------------------------------------------------------
                      In the Wake of the Weary- Evergray
----------------------------------------------------------------------------

Tuning: *DROP D*

  [                              X2                                      ]
e|-------------------------------------------------------------------------|
B|-------------------------------------------------------------------------|
G|-------------------------------------------------------------------------|
D|7-6-----7-6-----7-6-----7-6-----6-6--7-6-----7-6-----7-6-----7-6-----6-6-|
A|4-4-----4-4-----4-4-----4-4-----4-4--5-5-5-5-5-5-5-5-5-5-5-5-5-5-5-5-5-5-|
d|4-4-4-4-4-4-4-4-4-4-4-4-4-4-4-4-4-4--0-0-0-0-0-0-0-0-0-0-0-0-0-0-0-0-0-0-|


e|------------------------------------|
B|------------------------------------|
G|-----------------------------7------|
D|--7--6----7--6----7--6----7--7------|
A|--4--4----5--5----4--4----5--5------|
d|--4--4----0--0----4--4----0---------|


e|-------------------------------------------------------------------------|
B|-------------------------------------------------------------------------|
G|-------------------------------------------------------------------------|
D|-7-7-7-7-7-7-6-6-6-6-6-6-6-6-6-6--7-7-7-7-7-7-6-6-6-6-6-6-6-6-6-6--------|
A|-4-4-4-4-4-4-4-4-4-4-4-4-4-4-4-4--5-5-5-5-5-5-5-5-5-5-5-5-5-5-5-5--------|
d|-4-4-4-4-4-4-4-4-4-4-4-4-4-4-4-4--0-0-0-0-0-0-0-0-0-0-0-0-0-0-0-0--------|


e|-------------------------------------------------------------------------|
B|-----------------------------------------------------------5--5----------|
G|---------------------------------5-5-5-5-5-5-7-7-7-7-7-7--6--6-----------|
D|-7-7-7-7-7-7-6-6-6-6-6-6-6-6-6-6-5-5-5-5-5-5-7-7-7-7-7-7-7--6------------|
A|-4-4-4-4-4-4-5-5-5-5-5-5-5-5-5-5-2-2-2-2-2-2-5-5-5-5-5-5-----------------|
d|-4-4-4-4-4-4-0-0-0-0-0-0-0-0-0-0-----------------------------------------|


e|-------------------------------------------------------------------------|
B|-------------------------------------------------------------------------|
G|-------------------------------------------------------------------------|
D|7-6-----7-6-----7-6-----7-6-----6-6--7-6-----7-6-----7-6-----7-6-----6-6-|
A|4-4-----4-4-----4-4-----4-4-----4-4--5-5-5-5-5-5-5-5-5-5-5-5-5-5-5-5-5-5-|
d|4-4-4-4-4-4-4-4-4-4-4-4-4-4-4-4-4-4--0-0-0-0-0-0-0-0-0-0-0-0-0-0-0-0-0-0-|


e|-------------------------------|
B|-------------------------------|
G|--7---9---11--9---7---9---11---|
D|--7---9---11--9---7---9---11---|
A|--5---7---9---7---5---7---9----|
d|-------------------------------|


e|-------------------------------------------------------------------------|
B|-------------------------------------------------------------------------|
G|-------------------------------------------------------------------------|
D|-7-7-7-7-7-7-6-6-6-6-6-6-6-6-6-6--7-7-7-7-7-7-6-6-6-6-6-6-6-6-6-6--------|
A|-4-4-4-4-4-4-4-4-4-4-4-4-4-4-4-4--5-5-5-5-5-5-5-5-5-5-5-5-5-5-5-5--------|
d|-4-4-4-4-4-4-4-4-4-4-4-4-4-4-4-4--0-0-0-0-0-0-0-0-0-0-0-0-0-0-0-0--------|

  [                             X2                                        ]
e|-------------------------------------------------------------------------|
B|-----------------------------------------------------------5--5----------|
G|---------------------------------5-5-5-5-5-5-7-7-7-7-7-7--6--6-----------|
D|-7-7-7-7-7-7-6-6-6-6-6-6-6-6-6-6-5-5-5-5-5-5-7-7-7-7-7-7-7--6------------|
A|-4-4-4-4-4-4-5-5-5-5-5-5-5-5-5-5-2-2-2-2-2-2-5-5-5-5-5-5-----------------|
d|-4-4-4-4-4-4-0-0-0-0-0-0-0-0-0-0-----------------------------------------|


e|-------------------------------|
B|-------------------------------|
G|--7---9---11--9---7---9---11---|
D|--7---9---11--9---7---9---11---|
A|--5---7---9---7---5---7---9----|
d|-------------------------------|

  Solo:

  [     X4     ]
e|--16-17-16-17--14--16-17-16-17-16-17-16-14---------------------------------|
B|-------------------------------------------17b--17b-17-14----17b-16-17b----|
G|---------------------------------------------------------16b---------------|
D|---------------------------------------------------------------------------|
A|---------------------------------------------------------------------------|
d|---------------------------------------------------------------------------|


e|--------------------------------------14--14-17-19b--22-21--21-19-16-17--|
B|--------14----------------------14-17---17-------------------------------|
G|---14-16--16b-14----------14-16------------------------------------------|
D|-16-----------------14/-16-----------------------------------------------|
A|-------------------------------------------------------------------------|
d|-------------------------------------------------------------------------|


e|-17-16-14--------------14------------------------------------------------|
B|---------17-14-----------14---17b--19b--17-------------------------------|
G|--------------16--14-16----14---------------/18-16-18\-16-14-16----18--17|
D|----------------16-------------------------------------------------------|
A|----------------------------------------------------------------/18--17--|
d|-------------------------------------------------------------------------|

e|---------------14-17-14-19-17-14-17-14------------------------------14-17|
B|-------17b--16b-----------------------17-16-14-16-14------------14-17----|
G|---16-----------------------------------------------16-14--14-16---------|
D|---------------------------------------------------------16--------------|
A|-16----------------------------------------------------------------------|
d|-------------------------------------------------------------------------|
               End OF SOLO!

e|-------------------------------------------------------------------------|
B|-------------------------------------------------------------------------|
G|-------------------------------------------------------------------------|
D|7-6-----7-6-----7-6-----7-6-----6-6--7-6-----7-6-----7-6-----7-6-----6-6-|
A|4-4-----4-4-----4-4-----4-4-----4-4--5-5-5-5-5-5-5-5-5-5-5-5-5-5-5-5-5-5-|
d|4-4-4-4-4-4-4-4-4-4-4-4-4-4-4-4-4-4--0-0-0-0-0-0-0-0-0-0-0-0-0-0-0-0-0-0-|


e|-------------------------------------------------------------------------|
B|-------------------------------------------------------------------------|
G|-------------------------------------------------------------------------|
D|-------------------------------------------------------------------------|
A|-0-0--0-0--0-0--0-0--2-2--4-4--4-4--4-4--4-7\----------------------------|
d|-0-0--0-0--0-0--0-0--2-2--4-4--4-4--4-4--4-7\----------------------------|
     Thats it So far....

e|-------------------------------------------------------------------------|
B|-------------------------------------------------------------------------|
G|-------------------------------------------------------------------------|
D|--------------------------------2-0-2-------4+---------------------------|
A|--------4-2-4-------2-0-2------------------------------------------------|
d|--0-0-0-------0-0-0-------0-0-0-------0-0-0------------------------------|

************************************

| /   slide up
| \   slide down
| h   hammer-on
| p   pull-off
| ~   vibrato
| +   harmonic
| x   Mute note
| b   Bend
| pb  Pre-bend
| br  Bend release
| pbr Pre-bend release
| brb Bend release bend

************************************





Comments


Popular Evergrey tabs & chords
Damnation Bass Tabs
Mark Of The Triangle Bass Tabs
The Great Deceiver Bass Tabs
Recreation Day Chords
A Touch Of Blessing Tabs
Blinded 1 Tabs
Faith Restored Tabs
Numb Tabs
The Great Deceiver Tabs
The Masterplan Tabs


Song lyrics



↑ Back to top | Tablatures and chords are parodies/interpretations of the original songs. You may use it for private study, scholarship, research or language learning purposes only
© 2014 AZChords.com Contact us | Privacy policy | DMCA | Add/correct tabs | Request tabs | Top 50 tabs