» » »

Evergreen Terrace, Zero Tabs (ver.1)

Artists:  A B C D E F G H I J K L M N O P Q R S T U V W X Y Z # 

Zero Tabs (ver.1)

Evergreen Terrace Tabs
 Rating:
4/5 (4 votes)
Zero lessons Tabs too difficult? Try these video lessons and learn fast
                			     Zero – Evergreen Terrace

Tuning: Drop D

This is pretty much just the basic rhythm of the song, it just keeps repeating itself.

The . stands for palm muting. The breakdown is self explanatory just palm mute the top 
strings

                            .= PM

e|---------------------------------------------------------------------|
B|---------------------------------------------------------------------|
G|---------------------------------------------------------------------|
D|---------------------------------------------------------------------|
A|---------------------------------------------------------------------|
E|--8-77--0-0-0-0---88-77--0-0-0-0-------—-----------------------------|

e|---------------------------------------------------------------------|
B|---------------------------------------------------------------------|
G|---------------------------------------------------------------------|
D|--8-77--0-0-0-0---88-77--0-0-0-0-------------------------------------|
A|--8-77--0-0-0-0---88-77--0-0-0-0-------------------------------------|
E|--8-77--0-0-0-0---88-77--0-0-0-0---x2--------------------------------|

e|---------------------------------------------------------------------|
B|---------------------------------------------------------------------|
G|---------------------------------------------------------------------|
D|--8-77--0-0-0-0---88-77--0-0-0-0-------------------------------------|
A|--8-77--0-0-0-0---88-77--0-0-0-0-------------------------------------|
E|--8-77--0-0-0-0---88-77--0-0-0-0---x4--------------------------------|
          . . . .          . . . .
e|---------------------------------------------------------------------|
B|---------------------------------------------------------------------|
G|---------------------------------------------------------------------|
D|--12-0-0-14-0-0-12-0-0-15-0-0-12-------------------------------------|
A|--12-0-0-14-0-0-12-0-0-15-0-0-12-------------------------------------|
E|--12-0-0-14-0-0-12-0-0-15-0-0-12-------------------------------------|
       . .    . .    . .    . .


| /  slide up
| \  slide down
| h  hammer-on
| p  pull-off
| ~  vibrato
| +  harmonic
| x  Mute note
            
Submit corrections

comments powered by Disqus
↑ Back to top | Evergreen Terrace Tabs for Zero. Lyrics for acoustic guitar and electric guitar. Tablatures and chords are parodies/interpretations of the original songs. You may use it for private study, scholarship, research or language learning purposes only