>
 >
Tonight Is The Night We Ride

Tonight Is The Night We Ride Guitar Tabs

Evergreen Terrace - Tonight Is The Night We Ride chords, tabs, tablatures, lyrics

Guitar lessons | Add/correct | Request | Top 50 tabs Artists:  A B C D E F G H I J K L M N O P Q R S T U V W X Y Z 0-9

Tonight Is The Night We Ride Guitar Tabs – Evergreen Terrace

CD, Sheet music, Poster

Do you like Tonight Is The Night We Ride? Share with your friends now
Tabs
TONIGHT IS THE NIGHT WE RIDE
As recorded by Evergreen Terrace
(From the 2005 Album SINCERITY IS AN EASY DISGUISE IN THIS BUSINESS)

        

Words and Music by Evergreen Terrace
Arranged by Evergreen Terrace

Gtr I (Db Ab Db Gb Bb Eb) - 'Untitled'
Gtr II (Db Ab Db Gb Bb Eb) - 'Untitled'
Gtr III (Db Ab Db Gb Bb Eb) - 'Untitled'

  Intro
   Q=206
   N.C.                        D5
  4/4
   Gtr I
   W          H     E   E   E   E
||----------|---------------------|
||----------|---------------------|
||----------|------<7>-<7>-<7>-10p|
||----------|---------------------|
||----------|---------------------|
||----------|---------------------|
|
|  Gtr II
|  W          H     E   E   E   E
||----------|---------------------|
||----------|---------------------|
||----------|---------------------|
||----------|---------------------|
||----------|-------------------0-|
||----------|------<5>-<5>-<5>--0-|


                                          Bb5
   E  E  E E  E E E E    E E E E  E  E  E  E
|---------------------|------------------------|
|---------------------|------------------------|
|--7--7-12p7-10p7-9p7-|-10p7-9p7----------10p==|
|---------------------|----------10-12-12------|
|---------------------|------------------------|
|---------------------|------------------------|
|
| +E  E  E E  E E E E    E E E E  E  E  E  E
|---------------------|------------------------|
|---------------------|------------------------|
|---------------------|------------------------|
|---------------------|------------------------|
|-(0)-0--0-0--0-0-0-0-|--0-0-0-0--0--0--0--8---|
|-(0)-0--0-0--0-0-0-0-|--0-0-0-0--0--0--0--8---|


                                          D5/G
   E  E  E E  E E E E    E E E E  E  E  E  E
|---------------------|----------------------|
|---------------------|----------------------|
|--7--7-12p7-10p7-9p7-|-10p7-9p7----------10p|
|---------------------|----------10-12-12----|
|---------------------|----------------------|
|---------------------|----------------------|
|
| +E  E  E E  E E E E    E E E E  E  E  E  E
|---------------------|----------------------|
|---------------------|----------------------|
|---------------------|----------------------|
|---------------------|--------------------7-|
|-(8)-8--8-8--8-8-8-8-|--8-8-8-8--8--8--8--5-|
|-(8)-8--8-8--8-8-8-8-|--8-8-8-8--8--8--8--5-|


                                          N.C.
   E  E  E E  E E E E    E E E E  E  E  E E
|---------------------|---------------------|
|---------------------|---------------------|
|--7--7-12p7-10p7-9p7-|-10p7-9p7------------|
|---------------------|----------10-12-12---|
|---------------------|---------------------|
|---------------------|-------------------0-|
|
| +E  E  E E  E E E E    E E E E  E  E  E E
|---------------------|---------------------|
|---------------------|---------------------|
|---------------------|---------------------|
|-(7)-7--7-7--7-7-7-7-|--7-7-7-7--7--7--7---|
|-(5)-5--5-5--5-5-5-5-|--5-5-5-5--5--5--5---|
|-(5)-5--5-5--5-5-5-5-|--5-5-5-5--5--5--5-0-|


                                                 D5
  +E  E E E E E E E   E E E E  E      +E    +E    E
|-------------------|-------------------------------|
|-------------------|-------------------------------|
|-------------------|----------------------------10p|
|-------------------|-------------------------------|
|-------------------|---------[3]b5==([3])r([3])----|
|-(0)-0-3p0-5p0-3p0-|-6p0-5p0-----------------------|
|
| +E  E E E E E E E   E E E E  E      +E    +E    E
|-------------------|-------------------------------|
|-------------------|-------------------------------|
|-------------------|-------------------------------|
|-------------------|-------------------------------|
|-------------------|---------[3]b5==([3])r([3])--0-|
|-(0)-0-3p0-5p0-3p0-|-6p0-5p0---------------------0-|


                                          Bb5
   E  E  E E  E E E E    E E E E  E  E  E  E
|---------------------|-----------------------|
|---------------------|-----------------------|
|--7--7-12p7-10p7-9p7-|-10p7-9p7----------10p=|
|---------------------|----------10-12-12-----|
|---------------------|-----------------------|
|---------------------|-----------------------|
|
| +E  E  E E  E E E E    E E E E  E  E  E  E
|---------------------|-----------------------|
|---------------------|-----------------------|
|---------------------|-----------------------|
|---------------------|-----------------------|
|-(0)-0--0-0--0-0-0-0-|--0-0-0-0--0--0--0--8--|
|-(0)-0--0-0--0-0-0-0-|--0-0-0-0--0--0--0--8--|


                                          D5/G
   E  E  E E  E E E E    E E E E  E  E  E  E
|---------------------|----------------------|
|---------------------|----------------------|
|--7--7-12p7-10p7-9p7-|-10p7-9p7----------10p|
|---------------------|----------10-12-12----|
|---------------------|----------------------|
|---------------------|----------------------|
|
| +E  E  E E  E E E E    E E E E  E  E  E  E
|---------------------|----------------------|
|---------------------|----------------------|
|---------------------|----------------------|
|---------------------|--------------------7-|
|-(8)-8--8-8--8-8-8-8-|--8-8-8-8--8--8--8--5-|
|-(8)-8--8-8--8-8-8-8-|--8-8-8-8--8--8--8--5-|


   E  E  E E  E E E E    E E E E  E  E  E E
|---------------------|---------------------|
|---------------------|---------------------|
|--7--7-12p7-10p7-9p7-|-10p7-9p7------------|
|---------------------|----------10-12-12---|
|---------------------|---------------------|
|---------------------|-------------------0-|
|
| +E  E  E E  E E E E    E E E E  E  E  E E
|---------------------|---------------------|
|---------------------|---------------------|
|---------------------|---------------------|
|-(7)-7--7-7--7-7-7-7-|--7-7-7-7--7--7--7---|
|-(5)-5--5-5--5-5-5-5-|--5-5-5-5--5--5--5---|
|-(5)-5--5-5--5-5-5-5-|--5-5-5-5--5--5--5-0-|


                                                 D5
  +E  E E E E E E E   E E E E  E      +E    +E   E   +W           +W
|-------------------|------------------------------|------------|--------|
|-------------------|------------------------------|------------|--------|
|-------------------|------------------------------|------------|--------|
|-------------------|------------------------------|------------|--------|
|-------------------|---------[3]b5==([3])r([3])-0-|-(0)--------|-(0)----|
|-(0)-0-3p0-5p0-3p0-|-6p0-5p0--------------------0-|-(0)--------|-(0)----|
|
| +E  E E E E E E E   E E E E  E      +E    +E   E   +W           +W
|-------------------|------------------------------|------------|--------|
|-------------------|------------------------------|------------|--------|
|-------------------|------------------------------|------------|--------|
|-------------------|------------------------------|------------|--------|
|-------------------|---------[3]b5==([3])r([3])-0-|-(0)--------|-(0)----|
|-(0)-0-3p0-5p0-3p0-|-6p0-5p0--------------------0-|-(0)--------|-(0)----|


  Gtrs I, II
  Q   H.             W
|------------------|-----------------|
|------------------|-----------------|
|------------------|-----------------|
|------------------|-----------------|
|-0----------------|-----------------|
|-0----------------|-----------------|
|
| Gtr III
| E E E  E E E E E   E E E E E E E E
|------------------|-----------------|
|------------------|-----------------|
|-7-7-7--7-7-7-7-7-|-7-7-7-7-7-7-7-7-|
|------------------|-----------------|
|-5-5-5--5-5-5-5-5-|-5-5-5-5-5-5-5-5-|
|------------------|-----------------|


 Verse
  D5                  N.C.            D5                  G#5   F5
  Gtrs I, II
    PM|   PM|                           PM|   PM|               PM--------|
  E E E E E E E E   E E E E E E Q     E E E E E E E E   E E E E S S E S S E
|-----------------|-----------------|-----------------|-----------------------|
|-----------------|-----4---4---4\--|-----------------|-----------------------|
|-----------------|---7---7---7-----|-----------------|-----------------------|
|-----------------|-----------------|-----------------|-----------------------|
|-0-----0-----0---|-----------------|-0-----0-----0---|---6-6-6-3-3-3-3-3-3---|
|-0-0-0-0-0-0-0---|-----------------|-0-0-0-0-0-0-0---|---6-6-6-3-3-3-3-3-3---|


  D5                  N.C.            D5                G#5
    PM|   PM|                           PM|   PM|
  E E E E E E E E   E E E E E E Q     E E E E E E E E   E E E E E Q.
|-----------------|-----------------|-----------------|----------------|
|-----------------|-----4---4---4\--|-----------------|----------------|
|-----------------|---7---7---7-----|-----------------|----------------|
|-----------------|-----------------|-----------------|----------------|
|-0-----0-----0---|-----------------|-0-----0-----0---|-6-6-6-6-6------|
|-0-0-0-0-0-0-0---|-----------------|-0-0-0-0-0-0-0---|-6-6-6-6-6------|


  D5                  N.C.
    PM|   PM|
  E E E E E E E E   E E E E E E Q
|-----------------|------------------|
|-----------------|-----4---4---4\---|
|-----------------|---7---7---7------|
|-----------------|------------------|
|-0-----0-----0---|------------------|
|-0-0-0-0-0-0-0---|------------------|
|
| Gtr III
| E E E E E E E E   E E E E E E E  E
|-----------------|------------------|
|-----------------|------------------|
|-7-7-7-7-7-7-7-7-|-7-7-7-7-7-7-7--7-|
|-----------------|------------------|
|-5-5-5-5-5-5-5-5-|-5-5-5-5-5-5-5--5-|
|-----------------|------------------|


  D5                           G#5      F5
      PM|      PM|                       PM----------|
   E  E  E  E  E  E  E  E    E  E  E  E  S S  E  S S  E
|-------------------------|-------------------------------|
|-------------------------|-------------------------------|
|-------------------------|-------------------------------|
|-------------------------|-------------------------------|
|--0--------0--------0----|-----6--6--6--3-3--3--3-3--3---|
|--0--0--0--0--0--0--0----|-----6--6--6--3-3--3--3-3--3---|
|
|  E  E  E  E  E  E  E  E    E  E  E  E  E    E  E    E
|-------------------------|-------------------------------|
|-------------------------|-------------------------------|
|-10-10-10-10-10-10-10-10-|-13-13-13-13-13---13-13---13---|
|-------------------------|-------------------------------|
|--8--8--8--8--8--8--8--8-|-11-11-11-11-11---11-11---11---|
|-------------------------|-------------------------------|


  D5                  N.C.
    PM|   PM|
  E E E E E E E E   E E E E E E Q
|-----------------|------------------|
|-----------------|-----4---4---4\---|
|-----------------|---7---7---7------|
|-----------------|------------------|
|-0-----0-----0---|------------------|
|-0-0-0-0-0-0-0---|------------------|
|
| E E E E E E E E   E E E E E E E  E
|-----------------|------------------|
|-----------------|------------------|
|-7-7-7-7-7-7-7-7-|-7-7-7-7-7-7-7--7-|
|-----------------|------------------|
|-5-5-5-5-5-5-5-5-|-5-5-5-5-5-5-5--5-|
|-----------------|------------------|


  D5                        G#5
      PM|      PM|
   E  E  E  E  E  E  E  E    E  E  E  E  E  E  E  E
|-------------------------|-------------------------|
|-------------------------|-------------------------|
|-------------------------|-------------------------|
|-------------------------|-------------------------|
|--0--------0--------0----|--6--6--6--6--6--6--6--6-|
|--0--0--0--0--0--0--0----|--6--6--6--6--6--6--6--6-|
|
|  E  E  E  E  E  E  E  E    E  E  E  E  E  E  E  E
|-------------------------|-------------------------|
|-------------------------|-------------------------|
|-10-10-10-10-10-10-10-10-|-13-13-13-13-13-13-13-13-|
|-------------------------|-------------------------|
|--8--8--8--8--8--8--8--8-|-11-11-11-11-11-11-11-11-|
|-------------------------|-------------------------|


    N.C.
    Gtr II
     E  E  E  E  E  E  E  E    E  E  E  E  E  E  E  E
||--------------------------|-------------------------|
||o-------------------------|-------------------------|
||--19-19-19-19-19-19-19-19-|-19-19-19-19-19-19-19-19-|
||--------------------------|-------------------------|
||o-17-17-17-17-17-17-17-17-|-17-17-17-17-17-17-17-17-|
||--------------------------|-------------------------|


   E  E  E  E  E  E  E  E    E  E  E  E  E  E  E  E
|-------------------------|--------------------------|
|-------------------------|--------------------------|
|-19-19-19-19-19-19-19-19-|-19-19-19-19-19-19-19-19--|
|-------------------------|--------------------------|
|-17-17-17-17-17-17-17-17-|-17-17-17-17-17-17-17-17--|
|-------------------------|--------------------------|


  1.
  N.C.
  Gtrs I, II
  E E E E E E E E   E E E E  E      +E    +E   E
|-----------------|------------------------------|
|-----------------|------------------------------|
|-----------------|------------------------------|
|-----------------|------------------------------|
|-----------------|---------[3]b5==([3])r([3])---|
|-0-0-3p0-5p0-3p0-|-6p0-5p0--------------------0-|


  +E  E E E E E E E   E E E E  E      +E    +E   +E
|-------------------|---------------------------------||
|-------------------|--------------------------------o||
|-------------------|---------------------------------||
|-------------------|---------------------------------||
|-------------------|---------[3]b5==([3])r([3])-(3)-o||
|-(0)-0-3p0-5p0-3p0-|-6p0-5p0-------------------------||


  2.
  D5
  Gtr I
  E E E E E E E E   E E E E  E        +E    +E     E
|-----------------|----------------------------------|
|-----------------|----------------------------------|
|-----------------|----------------------------------|
|-----------------|----------------------------------|
|-----------------|---------[3]b5====([3])r([3])-----|
|-0-0-3p0-5p0-3p0-|-6p0-5p0------------------------0-|
|
| Gtr II
| PM--------------------------------------------------
| E E Q   E E Q     E E Q    S     S   E     S   S E
|-----------------|----------------------------------|
|-----------------|----------------------------------|
|-----------------|----------------------------------|
|-----------------|----------------------------------|
|-0-0-----0-0-----|-0-0------0-----0---0-----0---0-0-|
|-0-0-----0-0-----|-0-0------0-----0---0-----0---0-0-|


                              N.C.        D5
  +E  E E E E E E E   E E E E  E   E   E   E
|-------------------|---------------------------|
|-------------------|---------------------------|
|-------------------|---------------------10p===|
|-------------------|---------------------------|
|-------------------|---------------------------|
|-(0)-0-3p0-5p0-3p0-|-6p0-5p0-<5>-<5>-<5>-------|
|
|-----------------------|
|  E  E Q   E E Q     E E Q    E   E   E   E
|-------------------|---------------------------|
|-------------------|---------------------------|
|-------------------|---------------------------|
|-------------------|---------------------------|
|--0--0-----0-0-----|-0-0------------------0----|
|--0--0-----0-0-----|-0-0-----<5>-<5>-<5>--0----|


   Chorus
                                            Bb5
     E  E  E E  E E E E    E E E E  E  E  E  E
||----------------------|----------------------|
||o---------------------|----------------------|
||---7--7-12p7-10p7-9p7-|-10p7-9p7----------10-|
||----------------------|----------10-12-12----|
||o---------------------|----------------------|
||----------------------|----------------------|
|
|   +E  E  E E  E E E E    E E E E  E  E  E  E
||----------------------|----------------------|
||o---------------------|----------------------|
||----------------------|----------------------|
||----------------------|----------------------|
||o-(0)-0--0-0--0-0-0-0-|--0-0-0-0--0--0--0--8-|
||--(0)-0--0-0--0-0-0-0-|--0-0-0-0--0--0--0--8-|


                                          D5/G
   E  E  E E  E E E E    E E E E  E  E  E  E
|---------------------|------------------------|
|---------------------|------------------------|
|--7--7-12p7-10p7-9p7-|-10p7-9p7----------10p==|
|---------------------|----------10-12-12------|
|---------------------|------------------------|
|---------------------|------------------------|
|
| +E  E  E E  E E E E    E E E E  E  E  E  E
|---------------------|------------------------|
|---------------------|------------------------|
|---------------------|------------------------|
|---------------------|--------------------7---|
|-(8)-8--8-8--8-8-8-8-|--8-8-8-8--8--8--8--5---|
|-(8)-8--8-8--8-8-8-8-|--8-8-8-8--8--8--8--5---|


                                          N.C.
   E  E  E E  E E E E    E E E E  E  E  E E   +E  E E E E E E E
|---------------------|---------------------|-------------------|
|---------------------|---------------------|-------------------|
|--7--7-12p7-10p7-9p7-|-10p7-9p7------------|-------------------|
|---------------------|----------10-12-12---|-------------------|
|---------------------|---------------------|-------------------|
|---------------------|-------------------0-|-(0)-0-3p0-5p0-3p0-|
|
| +E  E  E E  E E E E    E E E E  E  E  E E   +E  E E E E E E E
|---------------------|---------------------|-------------------|
|---------------------|---------------------|-------------------|
|---------------------|---------------------|-------------------|
|-(7)-7--7-7--7-7-7-7-|--7-7-7-7--7--7--7---|-------------------|
|-(5)-5--5-5--5-5-5-5-|--5-5-5-5--5--5--5---|-------------------|
|-(5)-5--5-5--5-5-5-5-|--5-5-5-5--5--5--5-0-|-(0)-0-3p0-5p0-3p0-|


  1.                                2.
                                                               D5
  E E E E  E      +E    +E    E     E E E E  E      +E    +E   E
|--------------------------------||------------------------------|
|-------------------------------o||------------------------------|
|----------------------------10--||------------------------------|
|--------------------------------||------------------------------|
|---------[3]b5==([3])r([3])----o||---------[3]b5==([3])r([3])---|
|-6p0-5p0------------------------||-6p0-5p0--------------------0-|
|
| E E E E  E      +E    +E    E     E E E E  E      +E    +E   E
|--------------------------------||------------------------------|
|-------------------------------o||------------------------------|
|--------------------------------||------------------------------|
|--------------------------------||------------------------------|
|---------[3]b5==([3])r([3])--0-o||---------[3]b5==([3])r([3])-0-|
|-6p0-5p0---------------------0--||-6p0-5p0--------------------0-|


 Verse
  +E  E E E E E E E   E  E E E  E      +E    +E   E
|-------------------|-------------------------------|
|-------------------|-------------------------------|
|-------------------|-------------------------------|
|-------------------|-------------------------------|
|-------------------|----------[3]b5==([3])r([3])---|
|-(0)-0-3p0-5p0-3p0-|-6p=0-5p0--------------------0-|
|
| +Q    Q   H         H..                         E
|-------------------|-------------------------------|
|-------------------|-------------------------------|
|-------------------|-------------------------------|
|-------------------|-------------------------------|
|-(0)---0-----------|-----------------------------0-|
|-(0)---0-----------|-----------------------------0-|


  +E  E Q  Q  Q    Q    Q  Q  E E
|----------------|----------------|
|----------------|----------------|
|----------------|----------------|
|----------------|----------------|
|----------------|-3--------------|
|-(0)-0-3--5--6--|------6--5--3-0-|
|
| +Q    Q  H       H..          E
|----------------|----------------|
|----------------|----------------|
|----------------|----------------|
|----------------|----------------|
|-(0)---0--------|--------------0-|
|-(0)---0--------|--------------0-|


  +E  E E E E E E E   E  E E E  E      +E    +E   E
|-------------------|-------------------------------|
|-------------------|-------------------------------|
|-------------------|-------------------------------|
|-------------------|-------------------------------|
|-------------------|----------[3]b5==([3])r([3])---|
|-(0)-0-3p0-5p0-3p0-|-6p=0-5p0--------------------0-|
|
| +Q    Q   H         H..                         E
|-------------------|-------------------------------|
|-------------------|-------------------------------|
|-------------------|-------------------------------|
|-------------------|-------------------------------|
|-(0)---0-----------|-----------------------------0-|
|-(0)---0-----------|-----------------------------0-|


                   G#5
  +E  E Q  Q  Q    E E E E E Q.
|----------------|----------------|
|----------------|----------------|
|----------------|----------------|
|----------------|----------------|
|----------------|-6-6-6-6-6------|
|-(0)-0-3--5--6--|-6-6-6-6-6------|
|
| +Q    Q  H       E E E E E Q.
|----------------|----------------|
|----------------|----------------|
|----------------|----------------|
|----------------|----------------|
|-(0)---0--------|-6-6-6-6-6------|
|-(0)---0--------|-6-6-6-6-6------|


 Breakdown
  D5                           D5                  G#5   F5
  Gtrs I, II
    PM|   PM|                    PM|   PM|
  E E E E E E E E   W          E E E E E E E E   E E E E q  Q
|-----------------|----------|-----------------|---------------|
|-----------------|----------|-----------------|---------------|
|-----------------|----------|-----------------|---------------|
|-----------------|----------|-----------------|---------------|
|-0-----0-----0---|----------|-0-----0-----0---|---6-6-6-3-----|
|-0-0-0-0-0-0-0---|----------|-0-0-0-0-0-0-0---|---6-6-6-3-----|


  D5                           D5                  G#5   F5
    PM|   PM|                    PM|   PM|
  E E E E E E E E   W          E E E E E E E E   E E E E H
|-----------------|----------|-----------------|---------------|
|-----------------|----------|-----------------|---------------|
|-----------------|----------|-----------------|---------------|
|-----------------|----------|-----------------|---------------|
|-0-----0-----0---|----------|-0-----0-----0---|---6-6-6-3\----|
|-0-0-0-0-0-0-0---|----------|-0-0-0-0-0-0-0---|---6-6-6-3\----|


  D5
    PM|   PM|                     PM|   PM|
  E E E E E E Q    +W           E E E E E E E E   W
|----------------|------------|-----------------|------|
|----------------|------------|-----------------|------|
|----------------|------------|-----------------|------|
|----------------|------------|-----------------|------|
|-0-----0-----0--|-(0)--------|-0-----0-----0---|------|
|-0-0-0-0-0-0-0--|-(0)--------|-0-0-0-0-0-0-0---|------|


  D5                                                   N.C.        D5
  Gtr I
    PM|   PM|                     PM|   PM|
  E E E E E E Q    +W           E E E E E E E E   H     E   E   E   E
|----------------|------------|-----------------|----------------------|
|----------------|------------|-----------------|----------------------|
|----------------|------------|-----------------|------------------10p=|
|----------------|------------|-----------------|----------------------|
|-0-----0-----0--|-(0)--------|-0-----0-----0---|----------------------|
|-0-0-0-0-0-0-0--|-(0)--------|-0-0-0-0-0-0-0---|------<5>-<5>-<5>-----|
|
| Gtr II
|   PM|   PM|                     PM|   PM|
| E E E E E E Q    +W           E E E E E E E E   H     E   E   E   E
|----------------|------------|-----------------|----------------------|
|----------------|------------|-----------------|----------------------|
|----------------|------------|-----------------|----------------------|
|----------------|------------|-----------------|----------------------|
|-0-----0-----0--|-(0)--------|-0-----0-----0---|-------------------0--|
|-0-0-0-0-0-0-0--|-(0)--------|-0-0-0-0-0-0-0---|------<5>-<5>-<5>--0--|


   Chorus
                                            Bb5
     E  E  E E  E E E E    E E E E  E  E  E  E
||----------------------|----------------------|
||o---------------------|----------------------|
||---7--7-12p7-10p7-9p7-|-10p7-9p7----------10-|
||----------------------|----------10-12-12----|
||o---------------------|----------------------|
||----------------------|----------------------|
|
|   +E  E  E E  E E E E    E E E E  E  E  E  E
||----------------------|----------------------|
||o---------------------|----------------------|
||----------------------|----------------------|
||----------------------|----------------------|
||o-(0)-0--0-0--0-0-0-0-|--0-0-0-0--0--0--0--8-|
||--(0)-0--0-0--0-0-0-0-|--0-0-0-0--0--0--0--8-|


                                          D5/G
   E  E  E E  E E E E    E E E E  E  E  E  E
|---------------------|------------------------|
|---------------------|------------------------|
|--7--7-12p7-10p7-9p7-|-10p7-9p7----------10p==|
|---------------------|----------10-12-12------|
|---------------------|------------------------|
|---------------------|------------------------|
|
| +E  E  E E  E E E E    E E E E  E  E  E  E
|---------------------|------------------------|
|---------------------|------------------------|
|---------------------|------------------------|
|---------------------|--------------------7---|
|-(8)-8--8-8--8-8-8-8-|--8-8-8-8--8--8--8--5---|
|-(8)-8--8-8--8-8-8-8-|--8-8-8-8--8--8--8--5---|


                                          N.C.
   E  E  E E  E E E E    E E E E  E  E  E E   +E  E E E E E E E
|---------------------|---------------------|-------------------|
|---------------------|---------------------|-------------------|
|--7--7-12p7-10p7-9p7-|-10p7-9p7------------|-------------------|
|---------------------|----------10-12-12---|-------------------|
|---------------------|---------------------|-------------------|
|---------------------|-------------------0-|-(0)-0-3p0-5p0-3p0-|
|
| +E  E  E E  E E E E    E E E E  E  E  E E   +E  E E E E E E E
|---------------------|---------------------|-------------------|
|---------------------|---------------------|-------------------|
|---------------------|---------------------|-------------------|
|-(7)-7--7-7--7-7-7-7-|--7-7-7-7--7--7--7---|-------------------|
|-(5)-5--5-5--5-5-5-5-|--5-5-5-5--5--5--5---|-------------------|
|-(5)-5--5-5--5-5-5-5-|--5-5-5-5--5--5--5-0-|-(0)-0-3p0-5p0-3p0-|


  1.                                2.
                                                               D5
  E E E E  E      +E    +E    E     E E E E  E      +E    +E   E
|--------------------------------||------------------------------|
|-------------------------------o||------------------------------|
|----------------------------10--||------------------------------|
|--------------------------------||------------------------------|
|---------[3]b5==([3])r([3])----o||---------[3]b5==([3])r([3])-0-|
|-6p0-5p0------------------------||-6p0-5p0--------------------0-|
|
| E E E E  E      +E    +E    E     E E E E  E      +E    +E   E
|--------------------------------||------------------------------|
|-------------------------------o||------------------------------|
|--------------------------------||------------------------------|
|--------------------------------||------------------------------|
|---------[3]b5==([3])r([3])--0-o||---------[3]b5==([3])r([3])-0-|
|-6p0-5p0---------------------0--||-6p0-5p0--------------------0-|


             N.C.                       Bb5
    Gtrs I, II
    +E  E Q  E E E E   E E E E  E  E  E E
||-------------------|--------------------|
||o------------------|--------------------|
||-----------7-7-7-7-|-9-9-9-9-10-10-10---|
||-------------------|--------------------|
||o-(0)-0-0--5-5-5-5-|-7-7-7-7--8--8--8-8-|
||--(0)-0-0----------|------------------8-|


           N.C.                       D5/G
  +E  E Q  E E E E   E E E E  E  E  E E
|------------------|---------------------|
|------------------|---------------------|
|----------7-7-7-7-|-9-9-9-9-10-10-10----|
|------------------|------------------7--|
|-(8)-8-8--5-5-5-5-|-7-7-7-7--8--8--8-5--|
|-(8)-8-8----------|------------------5--|


           N.C.
  +E  E Q  E E E E   E E E E  E  E  E E
|------------------|--------------------|
|------------------|--------------------|
|----------7-7-7-7-|-9-9-9-9-10-10-10---|
|-(7)-7-7----------|--------------------|
|-(5)-5-5--5-5-5-5-|-7-7-7-7--8--8--8---|
|-(5)-5-5----------|------------------0-|


  1.
                                    D5
  +Q   E E E E E E   +Q   E E E E E E
|------------------|-------------------||
|------------------|------------------o||
|------7-7-7-7-7---|------7-7-7-7-7----||
|------------------|-------------------||
|------5-5-5-5-5---|------5-5-5-5-5-0-o||
|-(0)------------0-|-(0)------------0--||


  2.
  N.C.                                           D5
  +E  E E E E E E E   E E E E  E      +E    +E   E   +Q   Q  H      W
|-------------------|------------------------------|--------------|------*|
|-------------------|------------------------------|--------------|------*|
|-------------------|------------------------------|--------------|------*|
|-------------------|------------------------------|--------------|------*|
|-------------------|---------[3]b5==([3])r([3])-0-|-(0)--0-------|------*|
|-(0)-0-3p0-5p0-3p0-|-6p0-5p0--------------------0-|-(0)--0-------|------*|



Duration Legend
---------------
W - whole; H - half; Q - quarter; E - 8th; S - 16th; T - 32nd; X - 64th; a - acciaccatura
+ - note tied to previous; . - note dotted; .. - note double dotted
Uncapitalized letters represent notes that are staccato (1/2 duration)
Irregular groupings are notated above the duration line
Duration letters will always appear directly above the note/fret number it represents the
duration for.  Duration letters with no fret number below them represent rests.  Multi-
bar rests are notated in the form Wxn, where n is the number of bars to rest for.  Low
melody durations appear below the staff

Tablature Legend
----------------
 h   - hammer-on
 p   - pull-off
 b   - bend
 pb  - pre-bend
 r   - bend release (if no number after the r, then release immediately)
 /\  - slide into or out of (from/to "nowhere")
 s   - legato slide
 S   - shift slide
 - natural harmonic
[n]  - artificial harmonic
n(n) - tapped harmonic
 ~   - vibrato
 tr  - trill
 T   - tap
 TP  - trem. picking
 PM  - palm muting
\n/  - tremolo bar dip; n = amount to dip
 \n  - tremolo bar down
 n/  - tremolo bar up
/n\  - tremolo bar inverted dip
 =   - hold bend; also acts as connecting device for hammers/pulls
 <> - volume swell (louder/softer)
 x   - on rhythm slash represents muted slash
 o   - on rhythm slash represents single note slash

Misc Legend
-----------
 |  - bar
||  - double bar
||o - repeat start
o|| - repeat end
*|  - double bar (ending)
 :  - bar (freetime)
 $  - Segno
 &  - Coda
Tempo markers -  = BPM(8/16=s8/s16), where s8 = swing 8ths, s16 = swing 16ths





Comments


Popular Evergreen Terrace tabs & chords
Heavy Number One Bass Tabs
No Donnie These Men Are Nihilists Bass Tabs
Sweet Nothings Gone Forever Bass Tabs
Untitled Chords
Enjoy The Silence 1 Tabs
Funeral Grade Flowers 1 Tabs
Mad World Tabs
My Heart Beats In Breakdowns Tabs
Shattered Remains Of My Broken Heart Tabs
Sunday, Bloody Sunday 2 Tabs


Song lyrics



↑ Back to top | Tablatures and chords are parodies/interpretations of the original songs. You may use it for private study, scholarship, research or language learning purposes only
© 2014 AZChords.com Contact us | Privacy policy | DMCA | Add/correct tabs | Request tabs | Top 50 tabs