» » »

Evergreen Terrace, The Smell Of Summer Tabs (ver.1)

Artists:  A B C D E F G H I J K L M N O P Q R S T U V W X Y Z # 

The Smell Of Summer Tabs (ver.1)

Evergreen Terrace Tabs
 Rating:
4/5 (4 votes)
The Smell Of Summer lessons Tabs too difficult? Try these video lessons and learn fast
                I FOUND THIS TAB ON SOME RELATIVELY UNKNOWN SITE AND PLAYED IT WITH THE REAL SONG
AND IT SEEMS TO MATCH.


EVERGREEN TERRACE

VERSE     Play Twice
    |----------------------------------------------------------------------|
|--------------------------------------------------------------------------|
|-13-13-13-13-13-13-13-13-13-119-9-9-9-9-9-9-9-9-11------------------------|
|--------------------------------------------------------------------------|
|-11-11_11_11-11_11-11_11-11-9-7-7_7_7-7_7-7_7-7-9-------------------------|
|--------------------------------------------------------------------------|


|----------------------------------------------------------------|
|----------------------------------------------------------------|
|----------------------------------------------------------------|
|-13-13-13-13-13-13-13-13-13-119---------------------------------|
|-11-11_11_11-11_11-11_11-11-9-7---------------------------------|
|----------------------------------------------------------------|

INTERLUDE
|--------------------------------|X3|----------------------------|
|--------------------------------|X3|----------------------------|
|--------------------------------|X3|-9-9_9-9_9--13-13_13-13_13--|
|-11-11_11_11-11-11_11-11-9------|X3|----------------------------|
|-11-11_11_11-11-11_11------11-9-|X3|-7-7_7-7_7--11-11_11-11_11--|
|-11-11_11_11-11-11_11-----------|X3|----------------------------|

PRE-CHORUS     Play Twice
|-----------------------------------------------------------------|
|-----------------------------------------------------------------|
|-----------------------------------------------------------------|
|-6-6-6-6_6-6_6-6-6-8-8-8-8_8-8_8-8-8-9-9-9-9_9-9_9-9-9-7-7-7-7_7-|
|-4-4-4-4_4-4_4-4-4-6-6-6-6_6-6_6-6-6-7-7-7-7_7-7_7-7-7-7-7-7-7_7-|
|-------------------------------------------------------7-7-7-7_7-|


|----------------------------------------------------------------|
|----------------------------------------------------------------|
|----------------------------------------------------------------|
|-7_7-7-7--------------------------------------------------------|
|-7_7-7-7--------------------------------------------------------|
|-7_7-7-7--------------------------------------------------------|

CHORUS     Play Twice
|----------------------------------------------------------------|
|----------------------------------------------------------------|
|-9-9-9-9/----------6-6-6-6/-------------------------------------|
|-9-9-9-9/7-7_7-777-6-6-6-6/7-7_7-777----------------------------|
|-7-7-7-7/7-7_7-777-4-4-4-4/7-7_7-777----------------------------|
|---------7-7_7-777---------7-7_7-777----------------------------|


VERSE     Play Twice
    |----------------------------------------------------------------------|
|--------------------------------------------------------------------------|
|-13-13-13-13-13-13-13-13-13-119-9-9-9-9-9-9-9-9-11------------------------|
|--------------------------------------------------------------------------|
|-11-11_11_11-11_11-11_11-11-9-7-7_7_7-7_7-7_7-7-9-------------------------|
|--------------------------------------------------------------------------|


|----------------------------------------------------------------|
|----------------------------------------------------------------|
|----------------------------------------------------------------|
|-13-13-13-13-13-13-13-13-13-119---------------------------------|
|-11-11_11_11-11_11-11_11-11-9-7---------------------------------|
|----------------------------------------------------------------|

INTERLUDE
|--------------------------------|X3|----------------------------|
|--------------------------------|X3|----------------------------|
|--------------------------------|X3|-9-9_9-9_9--13-13_13-13_13--|
|-11-11_11_11-11-11_11-----------|X3|----------------------------|
|-11-11_11_11-11-11_11-----------|X3|-7-7_7-7_7--11-11_11-11_11--|
|-11-11_11_11-11-11_11-----------|X3|----------------------------|

INTERLUDE
|--------------------------------|X3|----------------------------|
|--------------------------------|X3|----------------------------|
|--------------------------------|X3|-9-9_9-9_9--13-13_13-13_13--|
|-11-11_11_11-11-11_11-11-9------|X3|----------------------------|
|-11-11_11_11-11-11_11------11-9-|X3|-7-7_7-7_7--11-11_11-11_11--|
|-11-11_11_11-11-11_11-----------|X3|----------------------------|


PRE-CHORUS     Play Twice
|-----------------------------------------------------------------|
|-----------------------------------------------------------------|
|-----------------------------------------------------------------|
|-6-6-6-6_6-6_6-6-6-8-8-8-8_8-8_8-8-8-9-9-9-9_9-9_9-9-9-7-7-7-7_7-|
|-4-4-4-4_4-4_4-4-4-6-6-6-6_6-6_6-6-6-7-7-7-7_7-7_7-7-7-7-7-7-7_7-|
|-------------------------------------------------------7-7-7-7_7-|


|----------------------------------------------------------------|
|----------------------------------------------------------------|
|----------------------------------------------------------------|
|-7_7-7-7--------------------------------------------------------|
|-7_7-7-7--------------------------------------------------------|
|-7_7-7-7--------------------------------------------------------|

CHORUS     Play Four Times and Fade
|----------------------------------------------------------------|
|----------------------------------------------------------------|
|-9-9-9-9/----------6-6-6-6/-------------------------------------|
|-9-9-9-9/7-7_7-777-6-6-6-6/7-7_7-777----------------------------|
|-7-7-7-7/7-7_7-777-4-4-4-4/7-7_7-777----------------------------|
|---------7-7_7-777---------7-7_7-777----------------------------|
            
Submit corrections

comments powered by Disqus
↑ Back to top | Evergreen Terrace Tabs for The Smell Of Summer. Lyrics for acoustic guitar and electric guitar. Tablatures and chords are parodies/interpretations of the original songs. You may use it for private study, scholarship, research or language learning purposes only