>
 >
Taking Care Of The Dead Fish

Taking Care Of The Dead Fish Guitar Tabs

Evergreen Terrace - Taking Care Of The Dead Fish chords, tabs, tablatures, lyrics

Guitar lessons | Add/correct | Request | Top 50 tabs Artists:  A B C D E F G H I J K L M N O P Q R S T U V W X Y Z 0-9

Taking Care Of The Dead Fish Guitar Tabs – Evergreen Terrace

CD, Sheet music, Poster

Do you like Taking Care Of The Dead Fish? Share with your friends now
Tabs
TAKING CARE OF THE DEAD FISH
As recorded by Evergreen Terrace
(From the 2002 Album BURNED ALIVE BY TIME)

        

Words and Music by Evergreen Terrace

Gtr I (D A D G B E) - 'Untitled'
Gtr II (D A D G B E) - 'Untitled'
Gtr III (D A D G B E) - 'Untitled'
Gtr IV (D A D G B E) - 'Untitled'

 Intro
  Q=150
  A/D                    D5          A/G                   D5  A/D
 4/4
  Gtr I
  Q  E E E E E E   E E E E E E E E   Q  E E E E E E   W
|----------------|-----------------|----------------|----------------|
|----2-----2-----|-2-----3-----3---|----2-----2-----|-2--------------|
|------2-----2---|---2-----2-----2-|------2-----2---|----------------|
|-0------0-----0-|-----0-----0-----|----------------|----------------|
|----------------|-----------------|----------------|----------------|
|----------------|-----------------|-5------5-----5-|----------------|
|
| Gtr II
| W                W                 W                Q.   E E E E E
|----------------|-----------------|----------------|----------------|
|----------------|-----------------|----------------|--------3---2---|
|----------------|-----------------|----------------|------2---2---2-|
|----------------|-----------------|----------------|----------------|
|----------------|-----------------|----------------|----------------|
|----------------|-----------------|----------------|----------------|


  A/D                    D5          A/G
  Q  E E E E E E   E E E E E E E E   Q  E E E E E E   W
|----------------|-----------------|----------------|------||
|----2-----2-----|-2-----3-----3---|----2-----2-----|-2----||
|------2-----2---|---2-----2-----2-|------2-----2---|------||
|-0------0-----0-|-----0-----0-----|----------------|------||
|----------------|-----------------|----------------|------||
|----------------|-----------------|-5------5-----5-|------||


   Verse
    N.C.
    Gtrs III, IV
    PM--------|                     PM--------|
    S S E S S E  S  S  E  S  S  E   S S E S S E  S  S  E  S  S  E
||--------------------------------|-------------------------------|
||o-------------------------------|-------------------------------|
||--------------10-10-10-10-10-10-|-------------10-10-10-10-10-10-|
||---------------x--x--x--x--x--x-|--------------x--x--x--x--x--x-|
||o--------------8--8--8--8--8--8-|--------------8--8--8--8--8--8-|
||--0-0-0-0-0-0-------------------|-0-0-0-0-0-0-------------------|


  PM--------|               PM--------|
  S S E S S E S S E S S E   S S E S S E S S E S S E
|-------------------------|----------------------------||
|-------------9-9-9-9-9-9-|-------------9-9-9-9-9-9---o||
|-------------x-x-x-x-x-x-|-------------x-x-x-x-x-x----||
|-------------6-6-6-6-6-6-|-------------6-6-6-6-6-6----||
|-------------------------|---------------------------o||
|-5-5-5-5-5-5-------------|-5-5-5-5-5-5----------------||


   Pre-Chorus
    D5
          PM----|      PM----|
                                  |-3-|
    Q  Q  S S S S Q    S S S S Q  Q Q Q
||-------------------|------------------|
||o------------------|------------------|
||-------------------|------------------|
||--0--0----------0--|---------0--0-0-0-|
||o-0--0--0-0-0-0-0--|-0-0-0-0-0--0-0-0-|
||--0--0--0-0-0-0-0--|-0-0-0-0-0--0-0-0-|


                                (C)
        PM----|      PM----|
                                |-3-|
  Q  Q  S S S S Q    S S S S Q  Q Q Q
|------------------|---------------------||
|------------------|--------------------o||
|------------------|------------8-8-8----||
|-0--0----------0--|---------0--x-x-x----||
|-0--0--0-0-0-0-0--|-0-0-0-0-0--6-6-6---o||
|-0--0--0-0-0-0-0--|-0-0-0-0-0--0-0-0----||


 Chorus
  D5
  Gtr III
  E E E E E E E E   E E E E E E E E
|-----------------|-----------------|
|-----------------|-----------------|
|-----------------|-----------------|
|-0-0-0-0-0-0-0-0-|-0-0-0-0-0-0-0-0-|
|-0-0-0-0-0-0-0-0-|-0-0-0-0-0-0-0-0-|
|-0-0-0-0-0-0-0-0-|-0-0-0-0-0-0-0-0-|
|
| Gtr IV
| E E E E E E E E   E E E E E E E E
|-----------------|-----------------|
|-----------------|-----------------|
|-7-7-7-7-7-7-7-7-|-9-9-9-9-9-9-9-9-|
|-x-x-x-x-x-x-x-x-|-x-x-x-x-x-x-x-x-|
|-5-5-5-5-5-5-5-5-|-7-7-7-7-7-7-7-7-|
|-0-0-0-0-0-0-0-0-|-0-0-0-0-0-0-0-0-|


  Bb5                       G5
   E  E  E  E  E  E  E  E   E E E E E E E E
|-------------------------|-----------------|
|-------------------------|-----------------|
|-10-10-10-10-10-10-10-10-|-7-7-7-7-7-7-7-7-|
|--8--8--8--8--8--8--8--8-|-5-5-5-5-5-5-5-5-|
|--8--8--8--8--8--8--8--8-|-5-5-5-5-5-5-5-5-|
|--8--8--8--8--8--8--8--8-|-5-5-5-5-5-5-5-5-|
|
|  E  E  E  E  E  E  E  E   E E E E E E E E
|-------------------------|-----------------|
|-------------------------|-----------------|
|-10-10-10-10-10-10-10-10-|-7-7-7-7-7-7-7-7-|
|--x--x--x--x--x--x--x--x-|-x-x-x-x-x-x-x-x-|
|--8--8--8--8--8--8--8--8-|-5-5-5-5-5-5-5-5-|
|--0--0--0--0--0--0--0--0-|-0-0-0-0-0-0-0-0-|


  D5                                  Bb5                       G5      D5
                                                                        |-3-|
  E E E E E E E E   E E E E E E E E    E  E  E  E  E  E  E  E   E E E E Q Q Q
|-----------------|-----------------|-------------------------|----------------|
|-----------------|-----------------|-------------------------|----------------|
|-----------------|-----------------|-10-10-10-10-10-10-10-10-|-7-7-7-7--------|
|-0-0-0-0-0-0-0-0-|-0-0-0-0-0-0-0-0-|--8--8--8--8--8--8--8--8-|-5-5-5-5-0-0-0--|
|-0-0-0-0-0-0-0-0-|-0-0-0-0-0-0-0-0-|--8--8--8--8--8--8--8--8-|-5-5-5-5-0-0-0--|
|-0-0-0-0-0-0-0-0-|-0-0-0-0-0-0-0-0-|--8--8--8--8--8--8--8--8-|-5-5-5-5-0-0-0--|
|
|                                                                       |-3-|
| E E E E E E E E   E E E E E E E E    E  E  E  E  E  E  E  E   E E E E Q Q Q
|-----------------|-----------------|-------------------------|----------------|
|-----------------|-----------------|-------------------------|----------------|
|-7-7-7-7-7-7-7-7-|-9-9-9-9-9-9-9-9-|-10-10-10-10-10-10-10-10-|-7-7-7-7--------|
|-x-x-x-x-x-x-x-x-|-x-x-x-x-x-x-x-x-|--x--x--x--x--x--x--x--x-|-x-x-x-x-0-0-0--|
|-5-5-5-5-5-5-5-5-|-7-7-7-7-7-7-7-7-|--8--8--8--8--8--8--8--8-|-5-5-5-5-0-0-0--|
|-0-0-0-0-0-0-0-0-|-0-0-0-0-0-0-0-0-|--0--0--0--0--0--0--0--0-|-0-0-0-0-0-0-0--|


  N.C.
  E E E E E E E E   E E E E E E E E
|-----------------|-----------------|
|-----------------|-----------------|
|-7-7-7-7-7-7-7-7-|-9-9-9-9-9-9-9-9-|
|-x-x-x-x-x-x-x-x-|-x-x-x-x-x-x-x-x-|
|-5-5-5-5-5-5-5-5-|-7-7-7-7-7-7-7-7-|
|-0-0-0-0-0-0-0-0-|-0-0-0-0-0-0-0-0-|
|
| E E E E E E E E   E E E E E E E E
|-----------------|-----------------|
|-----------------|-----------------|
|-7-7-7-7-7-7-7-7-|-9-9-9-9-9-9-9-9-|
|-x-x-x-x-x-x-x-x-|-x-x-x-x-x-x-x-x-|
|-5-5-5-5-5-5-5-5-|-7-7-7-7-7-7-7-7-|
|-0-0-0-0-0-0-0-0-|-0-0-0-0-0-0-0-0-|


   E  E  E  E  E  E  E  E    E  E  E  E  E  E  E  E
|-------------------------|-------------------------|
|-------------------------|-------------------------|
|-12-12-12-12-12-12-12-12-|-14-14-14-14-14-14-14-14-|
|--x--x--x--x--x--x--x--x-|--x--x--x--x--x--x--x--x-|
|-10-10-10-10-10-10-10-10-|-12-12-12-12-12-12-12-12-|
|--0--0--0--0--0--0--0--0-|--0--0--0--0--0--0--0--0-|
|
|  E  E  E  E  E  E  E  E    E  E  E  E  E  E  E  E
|-------------------------|-------------------------|
|-------------------------|-------------------------|
|-10-10-10-10-10-10-10-10-|--7--7--7--7--7--7--7--7-|
|--x--x--x--x--x--x--x--x-|--x--x--x--x--x--x--x--x-|
|--8--8--8--8--8--8--8--8-|--5--5--5--5--5--5--5--5-|
|--0--0--0--0--0--0--0--0-|--0--0--0--0--0--0--0--0-|


  N.C.
  E E E E E E E E   E E E E E E E E
|-----------------|-----------------|
|-----------------|-----------------|
|-7-7-7-7-7-7-7-7-|-9-9-9-9-9-9-9-9-|
|-x-x-x-x-x-x-x-x-|-x-x-x-x-x-x-x-x-|
|-5-5-5-5-5-5-5-5-|-7-7-7-7-7-7-7-7-|
|-0-0-0-0-0-0-0-0-|-0-0-0-0-0-0-0-0-|
|
| E E E E E E E E   E E E E E E E E
|-----------------|-----------------|
|-----------------|-----------------|
|-7-7-7-7-7-7-7-7-|-9-9-9-9-9-9-9-9-|
|-x-x-x-x-x-x-x-x-|-x-x-x-x-x-x-x-x-|
|-5-5-5-5-5-5-5-5-|-7-7-7-7-7-7-7-7-|
|-0-0-0-0-0-0-0-0-|-0-0-0-0-0-0-0-0-|


   E  E  E  E  E  E  E  E   E E E E E E E E
|-------------------------|-----------------||
|-------------------------|-----------------||
|-12-12-12-12-12-12-12-12-|-9-9-9-9-9-9-9-9-||
|--x--x--x--x--x--x--x--x-|-x-x-x-x-x-x-x-x-||
|-10-10-10-10-10-10-10-10-|-7-7-7-7-7-7-7-7-||
|--0--0--0--0--0--0--0--0-|-0-0-0-0-0-0-0-0-||
|
|  E  E  E  E  E  E  E  E   E E E E E E E E
|-------------------------|-----------------||
|-------------------------|-----------------||
|-10-10-10-10-10-10-10-10-|-7-7-7-7-7-7-7-7-||
|--x--x--x--x--x--x--x--x-|-x-x-x-x-x-x-x-x-||
|--8--8--8--8--8--8--8--8-|-5-5-5-5-5-5-5-5-||
|--0--0--0--0--0--0--0--0-|-0-0-0-0-0-0-0-0-||


 Breakdown
  D5                           N.C.   D5                           D5
  Gtrs III, IV
  PM------------------------|         PM------------------------|
  E E E S S E E E E   E S S Q  H      E E E S S E E E E   E S S Q   H
|-------------------|---------------|-------------------|-----------------|
|-------------------|---------------|-------------------|-----------------|
|-------------------|---------------|-------------------|-----------------|
|-------------------|---------------|-------------------|-----------------|
|-0-0---0-0-0---0-0-|---0-0-0-------|-0-0---0-0-0---0-0-|---0-0-0--12\----|
|-0-0---0-0-0---0-0-|---0-0-0-------|-0-0---0-0-0---0-0-|---0-0-0--12\----|


    D5                           N.C.   D5                           N.C.
    PM------------------------|         PM------------------------|
    E E E S S E E E E   E S S Q  H      E E E S S E E E E   E S S Q  H
||--------------------|---------------|-------------------|----------------||
||o-------------------|---------------|-------------------|---------------o||
||--------------------|---------------|-------------------|----------------||
||--------------------|---------------|-------------------|----------------||
||o-0-0---0-0-0---0-0-|---0-0-0-------|-0-0---0-0-0---0-0-|---0-0-0-------o||
||--0-0---0-0-0---0-0-|---0-0-0-------|-0-0---0-0-0---0-0-|---0-0-0--------||


  A/D                    D5          A/G
  >
  H      H         W                 W                W
|----------------|-----------------|----------------|------||
|----------------|-----------------|----------------|------||
|----------------|-----------------|----------------|------||
|----------------|-----------------|----------------|------||
|-0--------------|-----------------|----------------|------||
|-0--------------|-----------------|----------------|------||
|
| Gtr I
| Q  E E E E E E   E E E E E E E E   Q  E E E E E E   W
|----------------|-----------------|----------------|------||
|----2-----2-----|-2-----3-----3---|----2-----2-----|-2----||
|------2-----2---|---2-----2-----2-|------2-----2---|------||
|-0------0-----0-|-----0-----0-----|----------------|------||
|----------------|-----------------|----------------|------||
|----------------|-----------------|-5------5-----5-|------||


   Verse
    N.C.
    Gtrs III, IV
    PM--------|                     PM--------|
    S S E S S E  S  S  E  S  S  E   S S E S S E  S  S  E  S  S  E
||--------------------------------|-------------------------------|
||o-------------------------------|-------------------------------|
||--------------10-10-10-10-10-10-|-------------10-10-10-10-10-10-|
||---------------x--x--x--x--x--x-|--------------x--x--x--x--x--x-|
||o--------------8--8--8--8--8--8-|--------------8--8--8--8--8--8-|
||--0-0-0-0-0-0-------------------|-0-0-0-0-0-0-------------------|


  PM--------|               PM--------|
  S S E S S E S S E S S E   S S E S S E S S E S S E
|-------------------------|----------------------------||
|-------------9-9-9-9-9-9-|-------------9-9-9-9-9-9---o||
|-------------x-x-x-x-x-x-|-------------x-x-x-x-x-x----||
|-------------6-6-6-6-6-6-|-------------6-6-6-6-6-6----||
|-------------------------|---------------------------o||
|-5-5-5-5-5-5-------------|-5-5-5-5-5-5----------------||


   Pre-Chorus
    N.C.
    PM----------------------|           PM|     PM|       PM|     PM|
    E E E E E E E E   E E E E E E E E   E E E E E E E E   E E E E E E E E
||------------------|-----------------|-----------------|-------------------||
||o-----------------|-----------------|-----------------|------------------o||
||------------------|-----------------|-----------------|-------------------||
||------------------|-----------------|-----6-6-----6-6-|-----6-6-----6-6---||
||o-----------------|---------8-8-7-7-|-----------------|------------------o||
||--0-0-0-0-0-0-0-0-|-0-0-0-0---------|-5-5-----5-5-----|-5-5-----5-5-------||


 Chorus
  D5
  Gtr III
  E E E E E E E E   E E E E E E E E
|-----------------|-----------------|
|-----------------|-----------------|
|-----------------|-----------------|
|-0-0-0-0-0-0-0-0-|-0-0-0-0-0-0-0-0-|
|-0-0-0-0-0-0-0-0-|-0-0-0-0-0-0-0-0-|
|-0-0-0-0-0-0-0-0-|-0-0-0-0-0-0-0-0-|
|
| Gtr IV
| E E E E E E E E   E E E E E E E E
|-----------------|-----------------|
|-----------------|-----------------|
|-7-7-7-7-7-7-7-7-|-9-9-9-9-9-9-9-9-|
|-x-x-x-x-x-x-x-x-|-x-x-x-x-x-x-x-x-|
|-5-5-5-5-5-5-5-5-|-7-7-7-7-7-7-7-7-|
|-0-0-0-0-0-0-0-0-|-0-0-0-0-0-0-0-0-|


  Bb5                       G5
   E  E  E  E  E  E  E  E   E E E E E E E E
|-------------------------|-----------------|
|-------------------------|-----------------|
|-10-10-10-10-10-10-10-10-|-7-7-7-7-7-7-7-7-|
|--8--8--8--8--8--8--8--8-|-5-5-5-5-5-5-5-5-|
|--8--8--8--8--8--8--8--8-|-5-5-5-5-5-5-5-5-|
|--8--8--8--8--8--8--8--8-|-5-5-5-5-5-5-5-5-|
|
|  E  E  E  E  E  E  E  E   E E E E E E E E
|-------------------------|-----------------|
|-------------------------|-----------------|
|-10-10-10-10-10-10-10-10-|-7-7-7-7-7-7-7-7-|
|--x--x--x--x--x--x--x--x-|-x-x-x-x-x-x-x-x-|
|--8--8--8--8--8--8--8--8-|-5-5-5-5-5-5-5-5-|
|--0--0--0--0--0--0--0--0-|-0-0-0-0-0-0-0-0-|


  D5                                  Bb5                       G5      D5
                                                                        |-3-|
  E E E E E E E E   E E E E E E E E    E  E  E  E  E  E  E  E   E E E E Q Q Q
|-----------------|-----------------|-------------------------|----------------|
|-----------------|-----------------|-------------------------|----------------|
|-----------------|-----------------|-10-10-10-10-10-10-10-10-|-7-7-7-7--------|
|-0-0-0-0-0-0-0-0-|-0-0-0-0-0-0-0-0-|--8--8--8--8--8--8--8--8-|-5-5-5-5-0-0-0--|
|-0-0-0-0-0-0-0-0-|-0-0-0-0-0-0-0-0-|--8--8--8--8--8--8--8--8-|-5-5-5-5-0-0-0--|
|-0-0-0-0-0-0-0-0-|-0-0-0-0-0-0-0-0-|--8--8--8--8--8--8--8--8-|-5-5-5-5-0-0-0--|
|
|                                                                       |-3-|
| E E E E E E E E   E E E E E E E E    E  E  E  E  E  E  E  E   E E E E Q Q Q
|-----------------|-----------------|-------------------------|----------------|
|-----------------|-----------------|-------------------------|----------------|
|-7-7-7-7-7-7-7-7-|-9-9-9-9-9-9-9-9-|-10-10-10-10-10-10-10-10-|-7-7-7-7--------|
|-x-x-x-x-x-x-x-x-|-x-x-x-x-x-x-x-x-|--x--x--x--x--x--x--x--x-|-x-x-x-x-0-0-0--|
|-5-5-5-5-5-5-5-5-|-7-7-7-7-7-7-7-7-|--8--8--8--8--8--8--8--8-|-5-5-5-5-0-0-0--|
|-0-0-0-0-0-0-0-0-|-0-0-0-0-0-0-0-0-|--0--0--0--0--0--0--0--0-|-0-0-0-0-0-0-0--|


  N.C.
  E E E E E E E E   E E E E E E E E
|-----------------|-----------------|
|-----------------|-----------------|
|-7-7-7-7-7-7-7-7-|-9-9-9-9-9-9-9-9-|
|-x-x-x-x-x-x-x-x-|-x-x-x-x-x-x-x-x-|
|-5-5-5-5-5-5-5-5-|-7-7-7-7-7-7-7-7-|
|-0-0-0-0-0-0-0-0-|-0-0-0-0-0-0-0-0-|
|
| E E E E E E E E   E E E E E E E E
|-----------------|-----------------|
|-----------------|-----------------|
|-7-7-7-7-7-7-7-7-|-9-9-9-9-9-9-9-9-|
|-x-x-x-x-x-x-x-x-|-x-x-x-x-x-x-x-x-|
|-5-5-5-5-5-5-5-5-|-7-7-7-7-7-7-7-7-|
|-0-0-0-0-0-0-0-0-|-0-0-0-0-0-0-0-0-|


   E  E  E  E  E  E  E  E    E  E  E  E  E  E  E  E
|-------------------------|-------------------------|
|-------------------------|-------------------------|
|-12-12-12-12-12-12-12-12-|-14-14-14-14-14-14-14-14-|
|--x--x--x--x--x--x--x--x-|--x--x--x--x--x--x--x--x-|
|-10-10-10-10-10-10-10-10-|-12-12-12-12-12-12-12-12-|
|--0--0--0--0--0--0--0--0-|--0--0--0--0--0--0--0--0-|
|
|  E  E  E  E  E  E  E  E    E  E  E  E  E  E  E  E
|-------------------------|-------------------------|
|-------------------------|-------------------------|
|-10-10-10-10-10-10-10-10-|--7--7--7--7--7--7--7--7-|
|--x--x--x--x--x--x--x--x-|--x--x--x--x--x--x--x--x-|
|--8--8--8--8--8--8--8--8-|--5--5--5--5--5--5--5--5-|
|--0--0--0--0--0--0--0--0-|--0--0--0--0--0--0--0--0-|


  N.C.
  E E E E E E E E   E E E E E E E E
|-----------------|-----------------|
|-----------------|-----------------|
|-7-7-7-7-7-7-7-7-|-9-9-9-9-9-9-9-9-|
|-x-x-x-x-x-x-x-x-|-x-x-x-x-x-x-x-x-|
|-5-5-5-5-5-5-5-5-|-7-7-7-7-7-7-7-7-|
|-0-0-0-0-0-0-0-0-|-0-0-0-0-0-0-0-0-|
|
| E E E E E E E E   E E E E E E E E
|-----------------|-----------------|
|-----------------|-----------------|
|-7-7-7-7-7-7-7-7-|-9-9-9-9-9-9-9-9-|
|-x-x-x-x-x-x-x-x-|-x-x-x-x-x-x-x-x-|
|-5-5-5-5-5-5-5-5-|-7-7-7-7-7-7-7-7-|
|-0-0-0-0-0-0-0-0-|-0-0-0-0-0-0-0-0-|


   E  E  E  E  E  E  E  E   E E E E E E E E
|-------------------------|-----------------||
|-------------------------|-----------------||
|-12-12-12-12-12-12-12-12-|-9-9-9-9-9-9-9-9-||
|--x--x--x--x--x--x--x--x-|-x-x-x-x-x-x-x-x-||
|-10-10-10-10-10-10-10-10-|-7-7-7-7-7-7-7-7-||
|--0--0--0--0--0--0--0--0-|-0-0-0-0-0-0-0-0-||
|
|  E  E  E  E  E  E  E  E   E E E E E E E E
|-------------------------|-----------------||
|-------------------------|-----------------||
|-10-10-10-10-10-10-10-10-|-7-7-7-7-7-7-7-7-||
|--x--x--x--x--x--x--x--x-|-x-x-x-x-x-x-x-x-||
|--8--8--8--8--8--8--8--8-|-5-5-5-5-5-5-5-5-||
|--0--0--0--0--0--0--0--0-|-0-0-0-0-0-0-0-0-||


   Bridge
    Dm
                               >
     E  E  E  E  E  E  E  E    E  E  E  E  E  E  E  E
||--------------------------|-------------------------|
||o-------------------------|-------------------------|
||--10-10-10-10-10-10-10-10-|-10-10-10-10-10-10-10-10-|
||--12-12-12-12-12-12-12-12-|-12-12-12-12-12-12-12-12-|
||o-------------------------|-------------------------|
||--------------------------|-------------------------|


  Em                        Am/C
               >                         >
   E  E  E  E  E  E  E  E    E  E  E  E  E  E  E  E
|-------------------------|---------------------------||
|-------------------------|--------------------------o||
|-12-12-12-12-12-12-12-12-|-14-14-14-14-14-14-14-14---||
|-14-14-14-14-14-14-14-14-|-10-10-10-10-10-10-10-10---||
|-------------------------|--------------------------o||
|-------------------------|---------------------------||


    Dm                        Em          Fsus2
     PM------------------------------------------------
     e  e  e  e  e  e  e  e    e  e  e  e  e  e  e  e
||--------------------------|-------------------------|
||o-------------------------|-------------------------|
||--10-10-10-10-10-10-10-10-|-12-12-12-12-12-12-12-12-|
||--12-12-12-12-12-12-12-12-|-14-14-14-14-15-15-15-15-|
||o-------------------------|-------------------------|
||--------------------------|-------------------------|


  G           Em            Am/C
 ------------------------------------------------|
   e  e  e  e  e  e  e  e    e  e  e  e  e  e  e  e
|-------------------------|---------------------------||
|-------------------------|--------------------------o||
|-12-12-12-12-12-12-12-12-|-14-14-14-14-14-14-14-14---||
|-17-17-17-17-14-14-14-14-|-10-10-10-10-10-10-10-10---||
|-------------------------|--------------------------o||
|-------------------------|---------------------------||


  Dm                            Em                Fsus2
   PM----------------------------------------------------------
   e    e    e  e  e  e  e  e    e    e    e    e  e  e  e  e
|-----------------------------|-------------------------------|
|-----------------------------|-------------------------------|
|-10---10---10-10-10-10-10-10-|-12---12---12---12-12-12-12-12-|
|-12---12---12-12-12-12-12-12-|-14---14---14---14-15-15-15-15-|
|-----------------------------|-------------------------------|
|-----------------------------|-------------------------------|
|
| Gtr IV
|  S S  S S  E  H           E    S S  S S  S S  E  H
|-----------------------------|-------------------------------|
|-----------------------------|-------------------------------|
|-----------------------------|-------------------------------|
|--0-0--0-0--0----------------|--0-0--0-0--0-0--0-------------|
|--0-0--0-0--0----------------|--0-0--0-0--0-0--0-------------|
|--0-0--0-0--0----------------|--0-0--0-0--0-0--0-------------|


  G               Em            Am/C
 -----------------------------------------------------------|
   e    e    e  e  e  e  e  e    e    e    e    e  e   e  e  e
|-----------------------------|----------------------------------|
|-----------------------------|----------------------------------|
|-12---12---12-12-12-12-12-12-|-14---14---14---14-14--14-14-14---|
|-17---17---17-17-14-14-14-14-|-10---10---10---10-10--10-10-10---|
|-----------------------------|----------------------------------|
|-----------------------------|----------------------------------|
|
|  S S  S S  E  H           E    S S  S S  S S  E  Q.        e
|-----------------------------|----------------------------------|
|-----------------------------|----------------------------------|
|-----------------------------|----------------------------------|
|--0-0--0-0--0----------------|--0-0--0-0--0-0--0------------0---|
|--0-0--0-0--0----------------|--0-0--0-0--0-0--0------------0---|
|--0-0--0-0--0----------------|--0-0--0-0--0-0--0------------0---|


  Dm                            Em                Fsus2
   PM----------------------------------------------------------
   e    e    e  e  e  e  e  e    e    e    e    e  e  e  e  e
|-----------------------------|-------------------------------|
|-----------------------------|-------------------------------|
|-10---10---10-10-10-10-10-10-|-12---12---12---12-12-12-12-12-|
|-12---12---12-12-12-12-12-12-|-14---14---14---14-15-15-15-15-|
|-----------------------------|-------------------------------|
|-----------------------------|-------------------------------|
|
|  S S  S S  E  H           E    S S  S S  S S  E  H
|-----------------------------|-------------------------------|
|-----------------------------|-------------------------------|
|-----------------------------|-------------------------------|
|--0-0--0-0--0----------------|--0-0--0-0--0-0--0-------------|
|--0-0--0-0--0----------------|--0-0--0-0--0-0--0-------------|
|--0-0--0-0--0----------------|--0-0--0-0--0-0--0-------------|


  G               Em            Am/C
 -----------------------------------------------------------|
   e    e    e  e  e  e  e  e    e    e    e    e  e   e  e  e
|-----------------------------|----------------------------------|
|-----------------------------|----------------------------------|
|-12---12---12-12-12-12-12-12-|-14---14---14---14-14--14-14-14---|
|-17---17---17-17-14-14-14-14-|-10---10---10---10-10--10-10-10---|
|-----------------------------|----------------------------------|
|-----------------------------|----------------------------------|
|
|  S S  S S  E  H           E    S S  S S  S S  E  Q.        e
|-----------------------------|----------------------------------|
|-----------------------------|----------------------------------|
|-----------------------------|----------------------------------|
|--0-0--0-0--0----------------|--0-0--0-0--0-0--0------------0---|
|--0-0--0-0--0----------------|--0-0--0-0--0-0--0------------0---|
|--0-0--0-0--0----------------|--0-0--0-0--0-0--0------------0---|


  D5
  Gtrs III, IV
  S S S S E H    E   S S S S S S E H
|------------------|--------------------|
|------------------|--------------------|
|------------------|--------------------|
|-0-0-0-0-0--------|-0-0-0-0-0-0-0------|
|-0-0-0-0-0--------|-0-0-0-0-0-0-0------|
|-0-0-0-0-0--------|-0-0-0-0-0-0-0------|


  S S S S E H    E   S S S S S S E Q.   e
|------------------|------------------------|
|------------------|------------------------|
|------------------|------------------------|
|-0-0-0-0-0--------|-0-0-0-0-0-0-0------0---|
|-0-0-0-0-0--------|-0-0-0-0-0-0-0------0---|
|-0-0-0-0-0--------|-0-0-0-0-0-0-0------0---|


  D5
  S S S S E H    E   S S S S S S E H
|------------------|--------------------|
|------------------|--------------------|
|------------------|--------------------|
|-0-0-0-0-0--------|-0-0-0-0-0-0-0------|
|-0-0-0-0-0--------|-0-0-0-0-0-0-0------|
|-0-0-0-0-0--------|-0-0-0-0-0-0-0------|


  S S S S E H    E   S S S S S S E Q.   e
|------------------|------------------------||
|------------------|------------------------||
|------------------|------------------------||
|-0-0-0-0-0--------|-0-0-0-0-0-0-0------0---||
|-0-0-0-0-0--------|-0-0-0-0-0-0-0------0---||
|-0-0-0-0-0--------|-0-0-0-0-0-0-0------0---||


 Pre-Chorus
  D5                                                       (C)
        PM----|      PM----|                  PM----|
                                |-3-|
  Q  Q  S S S S Q    S S S S Q  Q Q Q   Q  Q  S S S S Q    E E E E E Q.
|------------------|------------------|------------------|-----------------||
|------------------|------------------|------------------|-----------------||
|------------------|------------------|------------------|-8-8-8-8-8-------||
|-0--0----------0--|---------0--0-0-0-|-0--0----------0--|-x-x-x-x-x-------||
|-0--0--0-0-0-0-0--|-0-0-0-0-0--0-0-0-|-0--0--0-0-0-0-0--|-6-6-6-6-6-------||
|-0--0--0-0-0-0-0--|-0-0-0-0-0--0-0-0-|-0--0--0-0-0-0-0--|-0-0-0-0-0-------||


 Chorus
  D5
  Gtr III
  E E E E E E E E   E E E E E E E E
|-----------------|-----------------|
|-----------------|-----------------|
|-----------------|-----------------|
|-0-0-0-0-0-0-0-0-|-0-0-0-0-0-0-0-0-|
|-0-0-0-0-0-0-0-0-|-0-0-0-0-0-0-0-0-|
|-0-0-0-0-0-0-0-0-|-0-0-0-0-0-0-0-0-|
|
| Gtr IV
| E E E E E E E E   E E E E E E E E
|-----------------|-----------------|
|-----------------|-----------------|
|-7-7-7-7-7-7-7-7-|-9-9-9-9-9-9-9-9-|
|-x-x-x-x-x-x-x-x-|-x-x-x-x-x-x-x-x-|
|-5-5-5-5-5-5-5-5-|-7-7-7-7-7-7-7-7-|
|-0-0-0-0-0-0-0-0-|-0-0-0-0-0-0-0-0-|


  Bb5                       G5
   E  E  E  E  E  E  E  E   E E E E E E E E
|-------------------------|-----------------|
|-------------------------|-----------------|
|-10-10-10-10-10-10-10-10-|-7-7-7-7-7-7-7-7-|
|--8--8--8--8--8--8--8--8-|-5-5-5-5-5-5-5-5-|
|--8--8--8--8--8--8--8--8-|-5-5-5-5-5-5-5-5-|
|--8--8--8--8--8--8--8--8-|-5-5-5-5-5-5-5-5-|
|
|  E  E  E  E  E  E  E  E   E E E E E E E E
|-------------------------|-----------------|
|-------------------------|-----------------|
|-10-10-10-10-10-10-10-10-|-7-7-7-7-7-7-7-7-|
|--x--x--x--x--x--x--x--x-|-x-x-x-x-x-x-x-x-|
|--8--8--8--8--8--8--8--8-|-5-5-5-5-5-5-5-5-|
|--0--0--0--0--0--0--0--0-|-0-0-0-0-0-0-0-0-|


  D5                                  Bb5                       G5      D5
                                                                        |-3-|
  E E E E E E E E   E E E E E E E E    E  E  E  E  E  E  E  E   E E E E Q Q Q
|-----------------|-----------------|-------------------------|----------------|
|-----------------|-----------------|-------------------------|----------------|
|-----------------|-----------------|-10-10-10-10-10-10-10-10-|-7-7-7-7--------|
|-0-0-0-0-0-0-0-0-|-0-0-0-0-0-0-0-0-|--8--8--8--8--8--8--8--8-|-5-5-5-5-0-0-0--|
|-0-0-0-0-0-0-0-0-|-0-0-0-0-0-0-0-0-|--8--8--8--8--8--8--8--8-|-5-5-5-5-0-0-0--|
|-0-0-0-0-0-0-0-0-|-0-0-0-0-0-0-0-0-|--8--8--8--8--8--8--8--8-|-5-5-5-5-0-0-0--|
|
|                                                                       |-3-|
| E E E E E E E E   E E E E E E E E    E  E  E  E  E  E  E  E   E E E E Q Q Q
|-----------------|-----------------|-------------------------|----------------|
|-----------------|-----------------|-------------------------|----------------|
|-7-7-7-7-7-7-7-7-|-9-9-9-9-9-9-9-9-|-10-10-10-10-10-10-10-10-|-7-7-7-7--------|
|-x-x-x-x-x-x-x-x-|-x-x-x-x-x-x-x-x-|--x--x--x--x--x--x--x--x-|-x-x-x-x-0-0-0--|
|-5-5-5-5-5-5-5-5-|-7-7-7-7-7-7-7-7-|--8--8--8--8--8--8--8--8-|-5-5-5-5-0-0-0--|
|-0-0-0-0-0-0-0-0-|-0-0-0-0-0-0-0-0-|--0--0--0--0--0--0--0--0-|-0-0-0-0-0-0-0--|


  N.C.
  E E E E E E E E   E E E E E E E E
|-----------------|-----------------|
|-----------------|-----------------|
|-7-7-7-7-7-7-7-7-|-9-9-9-9-9-9-9-9-|
|-x-x-x-x-x-x-x-x-|-x-x-x-x-x-x-x-x-|
|-5-5-5-5-5-5-5-5-|-7-7-7-7-7-7-7-7-|
|-0-0-0-0-0-0-0-0-|-0-0-0-0-0-0-0-0-|
|
| E E E E E E E E   E E E E E E E E
|-----------------|-----------------|
|-----------------|-----------------|
|-7-7-7-7-7-7-7-7-|-9-9-9-9-9-9-9-9-|
|-x-x-x-x-x-x-x-x-|-x-x-x-x-x-x-x-x-|
|-5-5-5-5-5-5-5-5-|-7-7-7-7-7-7-7-7-|
|-0-0-0-0-0-0-0-0-|-0-0-0-0-0-0-0-0-|


   E  E  E  E  E  E  E  E    E  E  E  E  E  E  E  E
|-------------------------|-------------------------|
|-------------------------|-------------------------|
|-12-12-12-12-12-12-12-12-|-14-14-14-14-14-14-14-14-|
|--x--x--x--x--x--x--x--x-|--x--x--x--x--x--x--x--x-|
|-10-10-10-10-10-10-10-10-|-12-12-12-12-12-12-12-12-|
|--0--0--0--0--0--0--0--0-|--0--0--0--0--0--0--0--0-|
|
|  E  E  E  E  E  E  E  E    E  E  E  E  E  E  E  E
|-------------------------|-------------------------|
|-------------------------|-------------------------|
|-10-10-10-10-10-10-10-10-|--7--7--7--7--7--7--7--7-|
|--x--x--x--x--x--x--x--x-|--x--x--x--x--x--x--x--x-|
|--8--8--8--8--8--8--8--8-|--5--5--5--5--5--5--5--5-|
|--0--0--0--0--0--0--0--0-|--0--0--0--0--0--0--0--0-|


  N.C.
  E E E E E E E E   E E E E E E E E
|-----------------|-----------------|
|-----------------|-----------------|
|-7-7-7-7-7-7-7-7-|-9-9-9-9-9-9-9-9-|
|-x-x-x-x-x-x-x-x-|-x-x-x-x-x-x-x-x-|
|-5-5-5-5-5-5-5-5-|-7-7-7-7-7-7-7-7-|
|-0-0-0-0-0-0-0-0-|-0-0-0-0-0-0-0-0-|
|
| E E E E E E E E   E E E E E E E E
|-----------------|-----------------|
|-----------------|-----------------|
|-7-7-7-7-7-7-7-7-|-9-9-9-9-9-9-9-9-|
|-x-x-x-x-x-x-x-x-|-x-x-x-x-x-x-x-x-|
|-5-5-5-5-5-5-5-5-|-7-7-7-7-7-7-7-7-|
|-0-0-0-0-0-0-0-0-|-0-0-0-0-0-0-0-0-|


   E  E  E  E  E  E  E  E   E E E E E E E E
|-------------------------|-----------------||
|-------------------------|-----------------||
|-12-12-12-12-12-12-12-12-|-9-9-9-9-9-9-9-9-||
|--x--x--x--x--x--x--x--x-|-x-x-x-x-x-x-x-x-||
|-10-10-10-10-10-10-10-10-|-7-7-7-7-7-7-7-7-||
|--0--0--0--0--0--0--0--0-|-0-0-0-0-0-0-0-0-||
|
|  E  E  E  E  E  E  E  E   E E E E E E E E
|-------------------------|-----------------||
|-------------------------|-----------------||
|-10-10-10-10-10-10-10-10-|-7-7-7-7-7-7-7-7-||
|--x--x--x--x--x--x--x--x-|-x-x-x-x-x-x-x-x-||
|--8--8--8--8--8--8--8--8-|-5-5-5-5-5-5-5-5-||
|--0--0--0--0--0--0--0--0-|-0-0-0-0-0-0-0-0-||


 Outro
  D5                                                       (C)
  Gtrs III, IV
        PM----|      PM----|                  PM----|
                                |-3-|
  Q  Q  S S S S Q    S S S S Q  Q Q Q   Q  Q  S S S S Q    E E E H    E
|------------------|------------------|------------------|---------------*|
|------------------|------------------|------------------|---------------*|
|------------------|------------------|------------------|-8-8-8---------*|
|-0--0----------0--|---------0--0-0-0-|-0--0----------0--|-x-x-x---------*|
|-0--0--0-0-0-0-0--|-0-0-0-0-0--0-0-0-|-0--0--0-0-0-0-0--|-6-6-6---------*|
|-0--0--0-0-0-0-0--|-0-0-0-0-0--0-0-0-|-0--0--0-0-0-0-0--|-0-0-0---------*|



Duration Legend
---------------
W - whole; H - half; Q - quarter; E - 8th; S - 16th; T - 32nd; X - 64th; a - acciaccatura
+ - note tied to previous; . - note dotted; .. - note double dotted
Uncapitalized letters represent notes that are staccato (1/2 duration)
Irregular groupings are notated above the duration line
Duration letters will always appear directly above the note/fret number it represents the
duration for.  Duration letters with no fret number below them represent rests.  Multi-
bar rests are notated in the form Wxn, where n is the number of bars to rest for.  Low
melody durations appear below the staff

Tablature Legend
----------------
 h   - hammer-on
 p   - pull-off
 b   - bend
 pb  - pre-bend
 r   - bend release (if no number after the r, then release immediately)
 /\  - slide into or out of (from/to "nowhere")
 s   - legato slide
 S   - shift slide
 - natural harmonic
[n]  - artificial harmonic
n(n) - tapped harmonic
 ~   - vibrato
 tr  - trill
 T   - tap
 TP  - trem. picking
 PM  - palm muting
\n/  - tremolo bar dip; n = amount to dip
 \n  - tremolo bar down
 n/  - tremolo bar up
/n\  - tremolo bar inverted dip
 =   - hold bend; also acts as connecting device for hammers/pulls
 <> - volume swell (louder/softer)
 x   - on rhythm slash represents muted slash
 o   - on rhythm slash represents single note slash

Misc Legend
-----------
 |  - bar
||  - double bar
||o - repeat start
o|| - repeat end
*|  - double bar (ending)
 :  - bar (freetime)
 $  - Segno
 &  - Coda
Tempo markers -  = BPM(8/16=s8/s16), where s8 = swing 8ths, s16 = swing 16ths





Comments


Popular Evergreen Terrace tabs & chords
Dear Live Journal Bass Tabs
No Donnie These Men Are Nihilists Bass Tabs
Untitled Chords
Dogfight Tabs
Funeral Grade Flowers 1 Tabs
Heavy Number One Tabs
Mad World 1 Tabs
Sunday Bloody Sunday Tabs
Sunday Bloody Sunday (Intro Ver 2) Tabs
Sunday, Bloody Sunday 1 Tabs


Song lyrics



↑ Back to top | Tablatures and chords are parodies/interpretations of the original songs. You may use it for private study, scholarship, research or language learning purposes only
© 2014 AZChords.com Contact us | Privacy policy | DMCA | Add/correct tabs | Request tabs | Top 50 tabs