>
 >
Sweet Nothings Gone Forever

Sweet Nothings Gone Forever Bass Tabs

Evergreen Terrace - Sweet Nothings Gone Forever chords, tabs, tablatures, lyrics

Guitar lessons | Add/correct | Request | Top 50 tabs Artists:  A B C D E F G H I J K L M N O P Q R S T U V W X Y Z 0-9

Sweet Nothings Gone Forever Bass Tabs – Evergreen Terrace

CD, Sheet music, Poster

Do you like Sweet Nothings Gone Forever? Share with your friends now
Bass Tabs

Dropped D tuning

Part 1

G|----------------------------
D|----------------------------
A|----------------6-6-6-6-6-6-
D|-0--0-0-0-0-0-0 ------------

G|--------
D|--------
A|--------
D|--1~----

Part 2

G|--------------------------------------------------------
D|--------------------------------------------------------
A|------------12----------12-----12---------8------8----8-
D|--12--12-12-----12--12------12-----8-8-8----8-8----8----

G|---------------------------------------------------------
D|---------------------------------------------------------
A|-------------10---------10------10-------7------7-----7--
D|--10--10-10-----10--10------10-----7-7-7----7-7----7-----

do Part 2 again and then it's just open D a bunch of different times.

Part 3

G|------------------------------------
D|------------------------------------
A|-------6~---------------6--6--6-6-6-
D|--5~--------5--5--5-5-5-------------

G|-----------------------
D|-----------------------
A|-----------------------
D|--0--0--0--0-0-0-0-0-0-

G|-----------------------------------------------------------------
D|-----------------------------------------------------------------
A|------------5-5-5-5-5-5-5-------------------8-8-8-8-8-8-8-8------
D|-5-5-5-5-5-----------------8-8-8-8-8-8-8-8--------------------5~-

Part 4

A|--------------
D|--5---8---3--- until fade out





Comments


Popular Evergreen Terrace tabs & chords
Untitled Chords
Kids Arent Alright Tabs
Mad World 1 Tabs
Maniac Tabs
New Friend Request Tabs
New Friend Request Intro Tabs
Plowed Tabs
Plowed (Sponge) Tabs
The Damned Intro Tabs
The Smell Of Summer Tabs


Song lyrics



↑ Back to top | Tablatures and chords are parodies/interpretations of the original songs. You may use it for private study, scholarship, research or language learning purposes only
© 2014 AZChords.com Contact us | Privacy policy | DMCA | Add/correct tabs | Request tabs | Top 50 tabs