» » »

No Donnie These Men Are Nihilists Bass tabs (ver.1)

Artists:  A B C D E F G H I J K L M N O P Q R S T U V W X Y Z # 

No Donnie These Men Are Nihilists Bass tabs (ver.1)

Evergreen Terrace
Rating:
2/5 (2 votes)

Hard to play? Try these video lessons and learn fast.
                Drop D tuning

My first tab, but im almost 100 percent its right, trust me on this
there are some parts that there is bass where there maybe shouldnt be 
but thats just how i play, i like to be playing as much as possible, 
but it sounds good how i have it tabbed to me.
intro/Verse 1 
-StatiK

 4/4
  Gtr I
|------------------------------------------------------------------|x8
|------------------------------------------------------------------|
|------------------------------------------------------------------|
|-0-2-3-1--0-0-0-0-0-0-0-0-0-0-0-0-0-0-0--0-0-0-0-0-0-0-0-0-0-3-2-1|


Chorus
|------------------------------------------------------|
|------------------------------------------------------|
|------------------------------------------------------|
|-0----8----10----7-7-7-7-8-8-8-8-0----8----10----5----|

|------------------------------------------------------|
|------------------------------------------------------|
|------------------------------------------------------|
|-0----8----10----7-7-7-7-8-8-8-8-0----8----10----5--5~|

Bridge 1
|--------------------------------------------------------------------|
|-----0-0-0-0-0-0-0-0-0-----0-0-0-0-0-0-0-0-0-----0-0-0-0-0-0-0-0-0--|
|--------------------------------------------------------------------|
|-0-0-------------------0-0-------------------0-0--------------------|

Breakdown
|----|x16
|----|
|----|
|-00-|

Bridge 2

|---------|
|---------|
|---------|
|-0-0-0-0-|

|----------------------------|
|----------------------------|
|---------1-0----------------|
|-0-0-0-0-----3-2-3-5-3-2----| x4

|---------|
|---------|
|---------|
|-0-0-0-0-|

Verse 2

|------------------------------------------------|
|------------------------------------------------|
|-----------------------------------------1-0----|
|-0--0--0--0--0--0--3-2--0--0--0--0--3-2---------|x4

|----------------------------------------------------------------|
|----------------------------------------------------------------|
|-----------------------------------------1-0-----1-0-----1-0-0--|
|-0--0--0--0--0--0--3-2--0--0--0--0--3-2------3-2-----3-2--------|

End with break down

|----|x16
|----|
|----|
|-00-|

|---|
|---|
|---|
|-0~|
            
Hard to play? Try these video lessons and learn fast. | Correct




comments powered by Disqus
↑ Back to top | Tablatures and chords are parodies/interpretations of the original songs. You may use it for private study, scholarship, research or language learning purposes only