» » »

Evergreen Terrace, My Heart Beats In Breakdowns Bass tabs (ver.1)

Artists:  A B C D E F G H I J K L M N O P Q R S T U V W X Y Z # 

My Heart Beats In Breakdowns Bass tabs (ver.1)

Evergreen Terrace Tabs
Rating:
4/5 (1 vote)
Hard to play? Try these video lessons and learn fast.
                MY HEART BEATS IN BREAKDOWNS (Bassline)
As recorded by Evergreen Terrace
(From the 2002 Album BURNED ALIVE BY TIME)

	

Words and Music by Evergreen Terrace
Arranged by Evergreen Terrace

Gtr I (D A D G) - 'Untitled'

 Intro        "Busted scars cut wide.."
  Dancefight Q=200
 4/4
  Gtr I
  W            E E E Q  E E E   H    E E E E   E E E Q  E E E   H    E E Q   4x
|----------||-----------------|--------------|----------------|--------------||
|----------||o----------------|--------------|----------------|-------------o||
|----------||o----------------|--------------|----------------|-------------o||
|----------||--0-0-0----0-0---|------0-0-0---|-0-0-0----0-0---|--------0-----||


  W          +H.      Q    Q  H.        H    E E E E
|----------|-------------|------------|---------------||
|----------|-------------|------------|---------------||
|----------|-------------|------------|---------------||
|-0--------|-(0)------0--|-0----------|------5-6-3----||


 "The brightest eyes can.."
  E E E E E E E E   E E E E E E E E   E E E E E E E E   E E E E E E E E
|-----------------|-----------------|-----------------|------------------|
|-----------------|-----------------|-----------------|------------------|
|-------4-4-4-----|-----------------|-------4-4-4-----|------------------|
|-0-0-0-------6-6-|-6-6-6-6-5-6-3-3-|-0-0-0-------6-6-|-6-6-6-6-5-6-3-3--|


  E E E E E E E E   E E E E E E E E   E E E E E E E E   E E E E E E E E
|-----------------|-----------------|-----------------|------------------|
|-----------------|-----------------|-----------------|------------------|
|-------4-4-4-----|-----------------|-------4-4-4-----|------------------|
|-0-0-0-------6-6-|-6-6-6-6-5-6-3-3-|-0-0-0-------6-6-|-6-6-6-6-5-6-3----|


    E E E E E E E E   E E E E E E E E   E E E E E E E E   E E E E E E Q
||------------------|-----------------|-----------------|-----------------||
||o-----------------|-----------------|-----------------|----------------o||
||o-------4---------|-----------------|-------4---------|-------------4--o||
||--0-0-0---0-0-6-0-|-0-5-0-0-5-6-5-3-|-0-0-0---0-0-6-0-|-0-5-0-0-5-6-----||


   "Exit anger through.."
    Q  Q  H      E E E H    E   Q  Q  H      E E E H    E
||-------------|--------------|------------|---------------||
||o------------|--------------|------------|--------------o||
||o------------|--------------|------------|--------------o||
||--0--0-------|-0-0-0--------|-0--0-------|-0-0-0---------||


 2/4
  H      Q  Q    Q  Q    Q  Q
|------|-------|-------|-------|
|------|-------|-------|-------|
|------|-------|-------|-------|
|-0----|-3--0--|-6--5--|-3--5--|


   4/4
    Q  Q  H      E E E H    E   Q  Q  H      E E E H    E
||-------------|--------------|------------|----------------||
||o------------|--------------|------------|---------------o||
||o------------|--------------|------------|---------------o||
||--0--0-------|-0-0-0--------|-0--0-------|-0-0-0----------||


   "Trying hard to reach.."
    Punch & Kick Q=225
    H    Q  Q    Q  Q  Q  Q    H    Q  Q    Q  Q  Q  Q   4x
||-------------|-------------|------------|--------------||
||o------------|-------------|------------|-------------o||
||o------------|-------------|------------|-------------o||
||--0----3--0--|-6--5--3--5--|-0----3--0--|-6--5--3--5---||


   Breakdown
    Into The Pit Q=205
    E E E E E E E E   E E E E H      E E E E E E E E   E E E E H
||------------------|--------------|-----------------|---------------||
||o-----------------|--------------|-----------------|--------------o||
||o-----------------|--------------|-----------------|--------------o||
||--0-0---0---0-0-0-|---0---0------|-0-0---0---0-0-0-|---0---0-------||


   2/2
    E E E E Q  E E   E E H.        E E E E Q  E E   E E H.
||-----------------|-------------|----------------|------------||
||o----------------|-------------|----------------|-----------o||
||o----------------|-------------|----------------|-----------o||
||--0-0---0----0-0-|---0---------|-0-0---0----0-0-|---0--------||


   "Distance will be the.."
    E E E E H      E E E E E E E E   E E E E H      W     4x
||---------------|-----------------|--------------|-------||
||o--------------|-----------------|--------------|------o||
||o--------------|-----------------|--------------|------o||
||--0-0---0------|-0-0-0-0-0-0-0-0-|-0-0---0------|-------||



Duration Legend
---------------
W - whole; H - half; Q - quarter; E - 8th; S - 16th; T - 32nd; X - 64th; a - acciaccatura
+ - note tied to previous; . - note dotted; .. - note double dotted
Uncapitalized letters represent notes that are staccato (1/2 duration)
Irregular groupings are notated above the duration line
Duration letters will always appear directly above the note/fret number it represents the
duration for.  Duration letters with no fret number below them represent rests.  Multi-
bar rests are notated in the form Wxn, where n is the number of bars to rest for.  Low
melody durations appear below the staff

Tablature Legend
----------------
 h   - hammer-on
 p   - pull-off
 b   - bend
 pb  - pre-bend
 r   - bend release (if no number after the r, then release immediately)
 /\  - slide into or out of (from/to "nowhere")
 s   - legato slide
 S   - shift slide
 - natural harmonic
[n]  - artificial harmonic
n(n) - tapped harmonic
 ~   - vibrato
 tr  - trill
 T   - tap
 TP  - trem. picking
 PM  - palm muting
\n/  - tremolo bar dip; n = amount to dip
 \n  - tremolo bar down
 n/  - tremolo bar up
/n\  - tremolo bar inverted dip
 =   - hold bend; also acts as connecting device for hammers/pulls
 <> - volume swell (louder/softer)
 x   - on rhythm slash represents muted slash
 o   - on rhythm slash represents single note slash

Misc Legend
-----------
 |  - bar
||  - double bar
||o - repeat start
o|| - repeat end
*|  - double bar (ending)
 :  - bar (freetime)
 $  - Segno
 &  - Coda
Tempo markers -  = BPM(8/16=s8/s16), where s8 = swing 8ths, s16 = swing 16ths
            

comments powered by Disqus
↑ Back to top | Evergreen Terrace Bass for My Heart Beats In Breakdowns. Lyrics for acoustic guitar and electric guitar. Tablatures and chords are parodies/interpretations of the original songs. You may use it for private study, scholarship, research or language learning purposes only