>
 >
Maniac

Maniac Guitar Tabs

Evergreen Terrace - Maniac chords, tabs, tablatures, lyrics

Guitar lessons | Add/correct | Request | Top 50 tabs Artists:  A B C D E F G H I J K L M N O P Q R S T U V W X Y Z 0-9

Maniac Guitar Tabs – Evergreen Terrace

CD, Sheet music, Poster

Do you like Maniac? Share with your friends now
Tabs
                                    Maniac                                      


                                                               Evergreen Terrace
Spur 1



             E  E  E  E  E  E  E  E     E  E  E  E  E  E  E  E   
E||-------|--------------------------|--------------------------|
B||-------|--------------------------|--------------------------|
G||-------|--4--4--4--4--4--4--4--4--|--6--6--6--6--6--6--6--6--|
D||-------|--4--4--4--4--4--4--4--4--|--6--6--6--6--6--6--6--6--|
A||-------|--2--2--2--2--2--2--2--2--|--4--4--4--4--4--4--4--4--|
D||-------|--------------------------|--------------------------|


  E  E  E  E  E  E  E  E     E  E  E  E  E  E  E  E   
--------------------------|--------------------------|
--------------------------|--------------------------|
--------------------------|--------------------------|
--3--3--3--3--3--3--3--3--|--3--3--3--3--3--3--3--3--|
--1--1--1--1--1--1--1--1--|--1--1--1--1--1--1--1--1--|
--1--1--1--1--1--1--1--1--|--1--1--1--1--1--1--1--1--|


  E  E  E  E  E  E  E  E     E  E  E  E  E  E  E  E   
--------------------------|--------------------------|
--------------------------|--------------------------|
--4--4--4--4--4--4--4--4--|--6--6--6--6--6--6--6--6--|
--4--4--4--4--4--4--4--4--|--6--6--6--6--6--6--6--6--|
--2--2--2--2--2--2--2--2--|--4--4--4--4--4--4--4--4--|
--------------------------|--------------------------|


  E  E  E   E   E   E   E   E      E   E   E   E   E   E   E   E   
-------------------------------|----------------------------------|
-------------------------------|----------------------------------|
--8--8--8--10--10--10--11--11--|--10--10--10--13--13--13--11--11--|
--x--x--x---x---x---x---x---x--|---x---x---x---x---x---x---x---x--|
--6--6--6---8---8---8---9---9--|---8---8---8--11--11--11---9---9--|
-------------------------------|----------------------------------|


  E  E  E  E  E  E  E  E     E  E  E  E  E  E  E  E   
--------------------------|--------------------------|
--------------------------|--------------------------|
--4--4--4--4--4--4--4--4--|--6--6--6--6--6--6--6--6--|
--4--4--4--4--4--4--4--4--|--6--6--6--6--6--6--6--6--|
--2--2--2--2--2--2--2--2--|--4--4--4--4--4--4--4--4--|
--------------------------|--------------------------|


  E  E  E  E  E  E  E  E     E  E  E  E  E  E  E  E   
--------------------------|--------------------------|
--------------------------|--------------------------|
--------------------------|--------------------------|
--------------3--3--------|--------------3--3--------|
--------1--1--------1--1--|--------1--1--------1--1--|
--1--1--------------------|--1--1--------------------|


  E  E  E  E  E  E  E  E     E  E  E  E  E  E  E  E   
--------------------------|--------------------------|
--------------------------|--------------------------|
--4--4--4--4--4--4--4--4--|--6--6--6--6--6--6--6--6--|
--4--4--4--4--4--4--4--4--|--6--6--6--6--6--6--6--6--|
--2--2--2--2--2--2--2--2--|--4--4--4--4--4--4--4--4--|
--------------------------|--------------------------|


  E  E  E  E  E  E  E  E     E  E  E  E  E  Q    E     W                 
--------------------------|-------------------------|-------------------|
--------------------------|-------------------------|-------------------|
--------------------------|-------------------------|--8----------------|
--3--3--3--3--3--3--3--3--|--3--1--3--3--3--3----3--|--x----------------|
--1--1--1--1--1--1--1--1--|--1--1--1--1--1--1----1--|--6----------------|
--1--1--1--1--1--1--1--1--|--1--1--1--1--1--1----1--|-------------------|


   W                    W                    E   E   E   E   E   E   E   E   
--------------------|--------------------|----------------------------------|
--------------------|--------------------|----------------------------------|
--10----------------|--11----------------|--13--13--13--11--11--11--10--10--|
---x----------------|---x----------------|---x---x---x---x---x---x---x---x--|
---8----------------|---9----------------|--11--11--11---9---9---9---8---8--|
--------------------|--------------------|----------------------------------|


  E  E  E  E  E  E  E  E     E  E  E  E  E  E  E  E   
--------------------------|--------------------------|
--------------------------|--------------------------|
--4--4--4--4--4--4--4--4--|--6--6--6--6--6--6--6--6--|
--4--4--4--4--4--4--4--4--|--6--6--6--6--6--6--6--6--|
--2--2--2--2--2--2--2--2--|--4--4--4--4--4--4--4--4--|
--------------------------|--------------------------|


  E  E  E  E  E  E  E  E     E  E  E  E  E  E  E  E     W                 
--------------------------|--------------------------|-------------------|
--------------------------|--------------------------|-------------------|
--4--4--4--4--4--4--4--4--|--3--3--3--3--3--3--3--3--|--8----------------|
--4--4--4--4--4--4--4--4--|--3--3--3--3--3--3--3--3--|--x----------------|
--2--2--2--2--2--2--2--2--|--1--1--1--1--1--1--1--1--|--6----------------|
--------------------------|--------------------------|-------------------|


   W                    W                    E   E   E   E   E   E   E   E   
--------------------|--------------------|----------------------------------|
--------------------|--------------------|----------------------------------|
--10----------------|--11----------------|--13--13--13--11--11--11--10--10--|
---x----------------|---x----------------|---x---x---x---x---x---x---x---x--|
---8----------------|---9----------------|--11--11--11---9---9---9---8---8--|
--------------------|--------------------|----------------------------------|


  E  E  E  E  E  E  E  E     E  E  E  E  E  E  E  E   
--------------------------|--------------------------|
--------------------------|--------------------------|
--4--4--4--4--4--4--4--4--|--6--6--6--6--6--6--6--6--|
--4--4--4--4--4--4--4--4--|--6--6--6--6--6--6--6--6--|
--2--2--2--2--2--2--2--2--|--4--4--4--4--4--4--4--4--|
--------------------------|--------------------------|


  E  E  E  E  E  E  E  E     E  E  E  E  E  E  E  E   
--------------------------|--------------------------|
--------------------------|--------------------------|
--4--4--4--4--4--4--4--4--|--3--3--3--3--3--3--3--3--|
--4--4--4--4--4--4--4--4--|--3--3--3--3--3--3--3--3--|
--2--2--2--2--2--2--2--2--|--1--1--1--1--1--1--1--1--|
--------------------------|--------------------------|


  E  E  E  E  E  E  E  E     E  E  E  E  E  E  E  E   
--------------------------|--------------------------|
--------------------------|--------------------------|
--------------------------|--------------------------|
--6--6--6--6--6--6--6--6--|--6--6--6--6--6--6--6--6--|
--6--6--6--6--6--6--6--6--|--6--6--6--6--6--6--6--6--|
--6--6--6--6--6--6--6--6--|--6--6--6--6--6--6--6--6--|


  E  E  E  E  E  E  E  E     E  E  E  E  E  E  E  E   
--------------------------|--------------------------|
--------------------------|--------------------------|
--------------------------|--------------------------|
--8--8--8--8--8--8--8--8--|--8--8--8--8--8--8--8--8--|
--8--8--8--8--8--8--8--8--|--8--8--8--8--8--8--8--8--|
--8--8--8--8--8--8--8--8--|--8--8--8--8--8--8--8--8--|


  PM PM PM PM PM PM PM PM    PM PM PM PM PM PM PM PM  
  E  E  E  E  E  E  E  E     E  E  E  E  E  E  E  E   
--------------------------|--------------------------|
--------------------------|--------------------------|
--------------------------|--------------------------|
--9--9--9--9--9--9--9--9--|--9--9--9--9--9--9--9--9--|
--9--9--9--9--9--9--9--9--|--9--9--9--9--9--9--9--9--|
--9--9--9--9--9--9--9--9--|--9--9--9--9--9--9--9--9--|


     PM    PM    PM    PM       PM    PM    PM    PM  
  E  E  E  E  E  E  E  E     E  E  E  E  E  E  E  E   
--------------------------|--------------------------|
--------------------------|--------------------------|
--------------------------|--------------------------|
--4-----4-----4-----4-----|--3-----3-----3-----3-----|
-----2-----2-----2-----2--|-----1-----1-----1-----1--|
--------------------------|--------------------------|


  E  E  E  E  E  E  E  E     E  E  E  E  E  E  E  E   
--------------------------|--------------------------|
--------------------------|--------------------------|
--4--4--4--4--4--4--4--4--|--6--6--6--6--6--6--6--6--|
--4--4--4--4--4--4--4--4--|--6--6--6--6--6--6--6--6--|
--2--2--2--2--2--2--2--2--|--4--4--4--4--4--4--4--4--|
--------------------------|--------------------------|


  E  E  E  E  E  E  E  E     E  E  E  E  E  E  E  E   
--------------------------|--------------------------|
--------------------------|--------------------------|
--------------------------|--------------------------|
--3--3--3--3--3--3--3--3--|--3--3--3--3--3--3--3--3--|
--1--1--1--1--1--1--1--1--|--1--1--1--1--1--1--1--1--|
--1--1--1--1--1--1--1--1--|--1--1--1--1--1--1--1--1--|


  E  E  E  E  E  E  E  E     E  E  E  E  E  E  E  E   
--------------------------|--------------------------|
--------------------------|--------------------------|
--4--4--4--4--4--4--4--4--|--6--6--6--6--6--6--6--6--|
--4--4--4--4--4--4--4--4--|--6--6--6--6--6--6--6--6--|
--2--2--2--2--2--2--2--2--|--4--4--4--4--4--4--4--4--|
--------------------------|--------------------------|


  E  E  E   E   E   E   E   E      E   E   E   E   E   E   E   E   
-------------------------------|----------------------------------|
-------------------------------|----------------------------------|
--8--8--8--10--10--10--11--11--|--10--10--10--13--13--13--11--11--|
--x--x--x---x---x---x---x---x--|---x---x---x---x---x---x---x---x--|
--6--6--6---8---8---8---9---9--|---8---8---8--11--11--11---9---9--|
-------------------------------|----------------------------------|


  E  E  E  E  E  E  E  E     E  E  E  E  E  E  E  E   
--------------------------|--------------------------|
--------------------------|--------------------------|
--4--4--4--4--4--4--4--4--|--6--6--6--6--6--6--6--6--|
--4--4--4--4--4--4--4--4--|--6--6--6--6--6--6--6--6--|
--2--2--2--2--2--2--2--2--|--4--4--4--4--4--4--4--4--|
--------------------------|--------------------------|


  E  E  E  E  E  E  E  E     E  E  E  E  E  E  E  E   
--------------------------|--------------------------|
--------------------------|--------------------------|
--------------------------|--------------------------|
--------------3--3--------|--------------3--3--------|
--------1--1--------1--1--|--------1--1--------1--1--|
--1--1--------------------|--1--1--------------------|


  E  E  E  E  E  E  E  E     E  E  E  E  E  E  E  E   
--------------------------|--------------------------|
--------------------------|--------------------------|
--4--4--4--4--4--4--4--4--|--6--6--6--6--6--6--6--6--|
--4--4--4--4--4--4--4--4--|--6--6--6--6--6--6--6--6--|
--2--2--2--2--2--2--2--2--|--4--4--4--4--4--4--4--4--|
--------------------------|--------------------------|


  E  E  E  E  E  E  E  E     E  E  E  E  E  E  E  E     W                 
--------------------------|--------------------------|-------------------|
--------------------------|--------------------------|-------------------|
--------------------------|--------------------------|-------------------|
--3--3--3--3--3--3--3--3--|--3--3--3--3--3--3--3--3--|--3----------------|
--1--1--1--1--1--1--1--1--|--1--1--1--1--1--1--1--1--|--1----------------|
--1--1--1--1--1--1--1--1--|--1--1--1--1--1--1--1--1--|--1----------------|


  W                    W                    W                 
-------------------|--------------------|--------------------|
-------------------|--------------------|--------------------|
--8----------------|--10----------------|--11----------------|
--x----------------|---x----------------|---x----------------|
--6----------------|---8----------------|---9----------------|
-------------------|--------------------|--------------------|


   E   E   E   E   E   E   E   E     E  E  E  E  E  E  E  E   
----------------------------------|--------------------------|
----------------------------------|--------------------------|
--13--13--13--11--11--11--10--10--|--4--4--4--4--4--4--4--4--|
---x---x---x---x---x---x---x---x--|--4--4--4--4--4--4--4--4--|
--11--11--11---9---9---9---8---8--|--2--2--2--2--2--2--2--2--|
----------------------------------|--------------------------|


  E  E  E  E  E  E  E  E     E  E  E  E  E  E  E  E   
--------------------------|--------------------------|
--------------------------|--------------------------|
--6--6--6--6--6--6--6--6--|--4--4--4--4--4--4--4--4--|
--6--6--6--6--6--6--6--6--|--4--4--4--4--4--4--4--4--|
--4--4--4--4--4--4--4--4--|--2--2--2--2--2--2--2--2--|
--------------------------|--------------------------|


  E  E  E  E  E  E  E  E     W                    W                 
--------------------------|-------------------|--------------------|
--------------------------|-------------------|--------------------|
--3--3--3--3--3--3--3--3--|--8----------------|--10----------------|
--3--3--3--3--3--3--3--3--|--x----------------|---x----------------|
--1--1--1--1--1--1--1--1--|--6----------------|---8----------------|
--------------------------|-------------------|--------------------|


   W                    E   E   E   E   E   E   E   E   
--------------------|----------------------------------|
--------------------|----------------------------------|
--11----------------|--13--13--13--11--11--11--10--10--|
---x----------------|---x---x---x---x---x---x---x---x--|
---9----------------|--11--11--11---9---9---9---8---8--|
--------------------|----------------------------------|


  E  E  E  E  E  E  E  E     E  E  E  E  E  E  E  E   
--------------------------|--------------------------|
--------------------------|--------------------------|
--4--4--4--4--4--4--4--4--|--6--6--6--6--6--6--6--6--|
--4--4--4--4--4--4--4--4--|--6--6--6--6--6--6--6--6--|
--2--2--2--2--2--2--2--2--|--4--4--4--4--4--4--4--4--|
--------------------------|--------------------------|


  E  E  E  E  E  E  E  E     E  E  E  E  E  E  E  E   
--------------------------|--------------------------|
--------------------------|--------------------------|
--4--4--4--4--4--4--4--4--|--3--3--3--3--3--3--3--3--|
--4--4--4--4--4--4--4--4--|--3--3--3--3--3--3--3--3--|
--2--2--2--2--2--2--2--2--|--1--1--1--1--1--1--1--1--|
--------------------------|--------------------------|


  E  E  E  E  E  E  E  E     E  E  E  E  E  E  E  E   
--------------------------|--------------------------|
--------------------------|--------------------------|
--------------------------|--------------------------|
--6--6--6--6--6--6--6--6--|--6--6--6--6--6--6--6--6--|
--6--6--6--6--6--6--6--6--|--6--6--6--6--6--6--6--6--|
--6--6--6--6--6--6--6--6--|--6--6--6--6--6--6--6--6--|


  E  E  E  E  E  E  E  E     E  E  E  E  E  E  E  E   
--------------------------|--------------------------|
--------------------------|--------------------------|
--------------------------|--------------------------|
--8--8--8--8--8--8--8--8--|--8--8--8--8--8--8--8--8--|
--8--8--8--8--8--8--8--8--|--8--8--8--8--8--8--8--8--|
--8--8--8--8--8--8--8--8--|--8--8--8--8--8--8--8--8--|


  E  E  E  E  E  E  E  E     E  E  E  E  E  E  E  E   
--------------------------|--------------------------|
--------------------------|--------------------------|
--------------------------|--------------------------|
--9--9--9--9--9--9--9--9--|--9--9--9--9--9--9--9--9--|
--9--9--9--9--9--9--9--9--|--9--9--9--9--9--9--9--9--|
--9--9--9--9--9--9--9--9--|--9--9--9--9--9--9--9--9--|


     PM    PM    PM    PM       PM    PM    PM    PM  
  E  E  E  E  E  E  E  E     E  E  E  E  E  E  E  E   
--------------------------|--------------------------|
--------------------------|--------------------------|
--------------------------|--------------------------|
--4-----4-----4-----4-----|--3-----3-----3-----3-----|
-----2-----2-----2-----2--|-----1-----1-----1-----1--|
--------------------------|--------------------------|


  E  E  E  E  E  E  E  E     E  E  E  E  E  E  E  E   
--------------------------|--------------------------|
--------------------------|--------------------------|
--4--4--4--4--4--4--4--4--|--6--6--6--6--6--6--6--6--|
--4--4--4--4--4--4--4--4--|--6--6--6--6--6--6--6--6--|
--2--2--2--2--2--2--2--2--|--4--4--4--4--4--4--4--4--|
--------------------------|--------------------------|


  E  E  E  E  E  E  E  E     E  E  E  E  E  E  E  E   
--------------------------|--------------------------|
--------------------------|--------------------------|
--------------------------|--------------------------|
--3--3--3--3--3--3--3--3--|--3--3--3--3--3--3--3--3--|
--1--1--1--1--1--1--1--1--|--1--1--1--1--1--1--1--1--|
--1--1--1--1--1--1--1--1--|--1--1--1--1--1--1--1--1--|


  E  E  E  E  E  E  E  E     E  E  E  E  E  E  E  E   
--------------------------|--------------------------|
--------------------------|--------------------------|
--4--4--4--4--4--4--4--4--|--6--6--6--6--6--6--6--6--|
--4--4--4--4--4--4--4--4--|--6--6--6--6--6--6--6--6--|
--2--2--2--2--2--2--2--2--|--4--4--4--4--4--4--4--4--|
--------------------------|--------------------------|


  E  E  E   E   E   E   E   E      E   E   E   E   E   E   E   E   
-------------------------------|----------------------------------|
-------------------------------|----------------------------------|
--8--8--8--10--10--10--11--11--|--10--10--10--13--13--13--11--11--|
--x--x--x---x---x---x---x---x--|---x---x---x---x---x---x---x---x--|
--6--6--6---8---8---8---9---9--|---8---8---8--11--11--11---9---9--|
-------------------------------|----------------------------------|


  E  E  E  E  E  E  E  E     E  E  E  E  E  E  E  E   
--------------------------|--------------------------|
--------------------------|--------------------------|
--4--4--4--4--4--4--4--4--|--6--6--6--6--6--6--6--6--|
--4--4--4--4--4--4--4--4--|--6--6--6--6--6--6--6--6--|
--2--2--2--2--2--2--2--2--|--4--4--4--4--4--4--4--4--|
--------------------------|--------------------------|


  E  E  E  E  E  E  E  E     E  E  E  E  E  E  E  E   
--------------------------|--------------------------|
--------------------------|--------------------------|
--------------------------|--------------------------|
--------------3--3--------|--------------3--3--------|
--------1--1--------1--1--|--------1--1--------1--1--|
--1--1--------------------|--1--1--------------------|


  E  E  E  E  E  E  E  E     E  E  E  E  E  E  E  E   
--------------------------|--------------------------|
--------------------------|--------------------------|
--4--4--4--4--4--4--4--4--|--6--6--6--6--6--6--6--6--|
--4--4--4--4--4--4--4--4--|--6--6--6--6--6--6--6--6--|
--2--2--2--2--2--2--2--2--|--4--4--4--4--4--4--4--4--|
--------------------------|--------------------------|


  E  E  E  E  E  E  E  E     E  E  E  E  E  E  E  E   
--------------------------|--------------------------|
--------------------------|--------------------------|
--------------------------|--------------------------|
--3--3--3--3--3--3--3--3--|--3--3--3--3--3--3--3--3--|
--1--1--1--1--1--1--1--1--|--1--1--1--1--1--1--1--1--|
--1--1--1--1--1--1--1--1--|--1--1--1--1--1--1--1--1--|


  PM PM PM       PM PM          PM PM       PM PM PM  
  E  E  E  E  E  E  E  E     E  E  E  E  E  E  E  E   
--------------------------|--------------------------|
--------------------------|--------------------------|
--------------------------|--------------------------|
--------------------------|--------------------------|
--1--1--1--------1--1-----|-----1--1--------1--1--1--|
--1--1--1--------1--1-----|-----1--1--------1--1--1--|


  PM PM PM       PM PM             PM PM PM PM PM PM  
  E  E  E  E  E  E  E  E     E  E  E  E  E  E  E  E   
--------------------------|--------------------------|
--------------------------|--------------------------|
--------------------------|--------------------------|
--------------------------|--------------------------|
--1--1--1--------1--1-----|--------1--1--1--1--1--1--|
--1--1--1--------1--1-----|--------1--1--1--1--1--1--|


  PM PM PM       PM PM          PM PM       PM PM PM  
  E  E  E  E  E  E  E  E     E  E  E  E  E  E  E  E   
--------------------------|--------------------------|
--------------------------|--------------------------|
--------------------------|--------------------------|
--------------------------|--------------------------|
--1--1--1--------1--1-----|-----1--1--------1--1--1--|
--1--1--1--------1--1-----|-----1--1--------1--1--1--|


  PM PM PM       PM PM             PM PM PM PM PM PM  
  E  E  E  E  E  E  E  E     E  E  E  E  E  E  E  E   
--------------------------|--------------------------|
--------------------------|--------------------------|
--------------------------|--------------------------|
--------------------------|--------------------------|
--1--1--1--------1--1-----|--------1--1--1--1--1--1--|
--1--1--1--------1--1-----|--------1--1--1--1--1--1--|


  PM PM PM       PM PM          PM PM       PM PM PM  
  E  E  E  E  E  E  E  E     E  E  E  E  E  E  E  E   
--------------------------|--------------------------|
--------------------------|--------------------------|
--------------------------|--------------------------|
--------------------------|--------------------------|
--1--1--1--------1--1-----|-----1--1--------1--1--1--|
--1--1--1--------1--1-----|-----1--1--------1--1--1--|


  PM PM PM       PM PM             PM PM PM PM PM PM  
  E  E  E  E  E  E  E  E     E  E  E  E  E  E  E  E   
--------------------------|--------------------------|
--------------------------|--------------------------|
--------------------------|--------------------------|
--------------------------|--------------------------|
--1--1--1--------1--1-----|--------1--1--1--1--1--1--|
--1--1--1--------1--1-----|--------1--1--1--1--1--1--|


  PM PM PM       PM PM          PM PM       PM PM PM  
  E  E  E  E  E  E  E  E     E  E  E  E  E  E  E  E   
--------------------------|--------------------------|
--------------------------|--------------------------|
--------------------------|--------------------------|
--------------------------|--------------------------|
--1--1--1--------1--1-----|-----1--1--------1--1--1--|
--1--1--1--------1--1-----|-----1--1--------1--1--1--|


  PM PM PM       PM PM             PM PM PM PM PM PM                      
  E  E  E  E  E  E  E  E     E  E  E  E  E  E  E  E     W                 
--------------------------|--------------------------|-------------------|
--------------------------|--------------------------|-------------------|
--------------------------|--------------------------|--4----------------|
--------------------------|--------------------------|--4----------------|
--1--1--1--------1--1-----|--------1--1--1--1--1--1--|--2----------------|
--1--1--1--------1--1-----|--------1--1--1--1--1--1--|-------------------|


  W                   W                   W                   W                 
-------------------|-------------------|-------------------|-------------------|
-------------------|-------------------|-------------------|-------------------|
--6----------------|-------------------|-------------------|--4----------------|
--6----------------|--3----------------|--L----------------|--4----------------|
--4----------------|--1----------------|--L----------------|--2----------------|
-------------------|--1----------------|--L----------------|-------------------|


  W                   W                   W                 
-------------------|-------------------|-------------------|
-------------------|-------------------|-------------------|
--6----------------|-------------------|-------------------|
--6----------------|--3----------------|--L----------------|
--4----------------|--1----------------|--L----------------|
-------------------|--1----------------|--L----------------|


  E  E  E  E  E  E  E  E     E  E  E  E  E  E  E  E   
--------------------------|--------------------------|
--------------------------|--------------------------|
--4--4--4--4--4--4--4--4--|--6--6--6--6--6--6--6--6--|
--4--4--4--4--4--4--4--4--|--6--6--6--6--6--6--6--6--|
--2--2--2--2--2--2--2--2--|--4--4--4--4--4--4--4--4--|
--------------------------|--------------------------|


  E  E  E   E   E   E   E   E      E   E   E   E   E   E   E   E   
-------------------------------|----------------------------------|
-------------------------------|----------------------------------|
--8--8--8--10--10--10--11--11--|--10--10--10--13--13--13--11--11--|
--x--x--x---x---x---x---x---x--|---x---x---x---x---x---x---x---x--|
--6--6--6---8---8---8---9---9--|---8---8---8--11--11--11---9---9--|
-------------------------------|----------------------------------|


  E  E  E  E  E  E  E  E     E  E  E  E  E  E  E  E   
--------------------------|--------------------------|
--------------------------|--------------------------|
--4--4--4--4--4--4--4--4--|--6--6--6--6--6--6--6--6--|
--4--4--4--4--4--4--4--4--|--6--6--6--6--6--6--6--6--|
--2--2--2--2--2--2--2--2--|--4--4--4--4--4--4--4--4--|
--------------------------|--------------------------|


  E  E  E  E  E  E  E  E     E  E  E  E  E  E  Q       W                       
--------------------------|-------------------------|-------------------|-----|
--------------------------|-------------------------|-------------------|-----|
--------------------------|-------------------------|-------------------|-----|
--3--3--3--3--3--3--3--3--|--3--3--3--3--3--3--3----|--3----------------|-----|
--1--1--1--1--1--1--1--1--|--1--1--1--1--1--1--1----|--1----------------|-----|
--1--1--1--1--1--1--1--1--|--1--1--1--1--1--1--1----|--1----------------|-----|


-----|-----|-----||
-----|-----|-----||
-----|-----|-----||
-----|-----|-----||
-----|-----|-----||
-----|-----|-----||




Duration Legend
---------------
W - whole
H - half
Q - quarter
E - 8th
S - 16th
T - 32nd
X - 64th
. - note dotted
|-n-|  - n-tuplets


Tablature Legend
----------------
L - tied note
x - dead note
g - grace note
(n) - ghost note
> - accentuded note
NH - natural harmonic
AH - artificial harmonic
TH - tapped harmonic
SH - semi harmonic
PH - pitch harmonic
h - hammer on
p - pull off
b - bend
br - bendRelease
pb - preBend
pbr - preBendRelease
brb - bendReleaseBend
\n/ - tremolo bar dip
\n - tremolo bar dive
-/n - tremolo bar Release up
/n\ - tremolo bar inverted dip
/n - tremolo bar return
-\n - tremolo bar Release down
S - shift slide
s - legato slide
/ -  slide into from below or out of upwards
\ -  slide into from above or out of downwards
~ - vibrato
W - wide vibrato
tr - trill
TP - tremolo picking
T - tapping
S - slap
P - pop
< - fade in
^ - brush up
v - brush down





Comments


Popular Evergreen Terrace tabs & chords
No Donnie, These Men Are Nihilist Bass Tabs
Untitled Chords
Heavy Number One Tabs
Kids Arent Alright Tabs
My Heart Beats In Breakdowns Tabs
New Friend Request 1 Tabs
New Friend Request Intro Tabs
No Donnie These Men A Nhilist Tabs
Plowed Tabs
Untitled Tabs


Song lyrics



↑ Back to top | Tablatures and chords are parodies/interpretations of the original songs. You may use it for private study, scholarship, research or language learning purposes only
© 2014 AZChords.com Contact us | Privacy policy | DMCA | Add/correct tabs | Request tabs | Top 50 tabs