» » »

Evergreen Terrace, Mad World Tabs (ver.1)

Artists:  A B C D E F G H I J K L M N O P Q R S T U V W X Y Z # 

Mad World Tabs (ver.1)

Evergreen Terrace Tabs
 Rating:
4.2/5 (5 votes)
Mad World lessons Tabs too difficult? Try these video lessons and learn fast
1
                #------------------------------------------------------------------------------##

                                    MAD WORLD
                        As recorded by Evergreen Terrace
                      (From the 2004 Album WRITER'S BLOCK)

Words and Music by Evergreen Terrace
Arranged by Evergreen Terrace

Gtr I (D A D G B E) - 'Untitled'
Gtr II (D A D G B E) - 'Untitled'
Gtr III (D A D G B E) - 'Untitled'

 Intro
  Darkocore Q=133
  N.C.
 4/4
  Gtr I
  Wx12
|---------|
|---------|
|---------|
|---------|
|---------|
|---------|


 "And their tears are filling.."
  F#5               A5                E5                B5
  PM------------------------------------------------------------------|
  E E E E E E E E   E E E E E E E E   E E E E E E E E   E E E E E E E E
|-----------------|-----------------|-----------------|------------------|
|-----------------|-----------------|-----------------|------------------|
|-----------------|-----------------|-----------------|------------------|
|-----------------|-2-2-2-2-2-2-2-2-|-----------------|-4-4-4-4-4-4-4-4--|
|-4-4-4-4-4-4-4-4-|-0-0-0-0-0-0-0-0-|-2-2-2-2-2-2-2-2-|-2-2-2-2-2-2-2-2--|
|-4-4-4-4-4-4-4-4-|-----------------|-2-2-2-2-2-2-2-2-|------------------|


  F#5               A5                E5                B5
                                                        Gtrs I, II
  PM------------------------------------------------|
  E E E E E E E E   E E E E E E E E   E E E E E E E E   E E E E E Q.
|-----------------|-----------------|-----------------|-----------------|
|-----------------|-----------------|-----------------|-----------------|
|-----------------|-----------------|-----------------|-4-4-4-4-4-------|
|-----------------|-2-2-2-2-2-2-2-2-|-----------------|-4-4-4-4-4-------|
|-4-4-4-4-4-4-4-4-|-0-0-0-0-0-0-0-0-|-2-2-2-2-2-2-2-2-|-2-2-2-2-2-------|
|-4-4-4-4-4-4-4-4-|-----------------|-2-2-2-2-2-2-2-2-|-----------------|


   "And I find it kind of.."
    F#5               N.C.
    Gtr I
    E E E E E E E E   E E E E E E  E  E
||------------------|-------------------|
||o-----------------|-------------------|
||------------------|-7-7-7-9-9-9-11-11-|
||--4-4-4-4-4-4-4-4-|-x-x-x-x-x-x--x--x-|
||o-4-4-4-4-4-4-4-4-|-5-5-5-7-7-7--9--9-|
||--4-4-4-4-4-4-4-4-|-------------------|
|
|   Gtr II
|   E E E E E E E E   E E E E E E  E  E
||------------------|-------------------|
||o-----------------|-------------------|
||------------------|-4-4-4-7-7-7-11-11-|
||--4-4-4-4-4-4-4-4-|-x-x-x-x-x-x--x--x-|
||o-4-4-4-4-4-4-4-4-|-2-2-2-5-5-5--9--9-|
||--4-4-4-4-4-4-4-4-|-------------------|


  F#5               N.C.
  E E E E E E E E   E E E E E E  E  E
|-----------------|--------------------||
|-----------------|-------------------o||
|-----------------|-7-7-7-9-9-9-11-11--||
|-4-4-4-4-4-4-4-4-|-x-x-x-x-x-x--x--x--||
|-4-4-4-4-4-4-4-4-|-5-5-5-7-7-7--9--9-o||
|-4-4-4-4-4-4-4-4-|--------------------||
|
| E E E E E E E E   E E E E E E  E  E
|-----------------|--------------------||
|-----------------|-------------------o||
|-----------------|-4-4-4-7-7-7-11-11--||
|-4-4-4-4-4-4-4-4-|-x-x-x-x-x-x--x--x--||
|-4-4-4-4-4-4-4-4-|-2-2-2-5-5-5--9--9-o||
|-4-4-4-4-4-4-4-4-|--------------------||


 "Mad world.."
  F#5                  F#m               F#5                  F#m
  Gtrs I, II
  PM---------------|                     PM---------------|
  S S S S E Q  E E E   E E E E E E E E   S S S S E Q  E E E   E E E E E E E E
|--------------------|---5-5-5-5-5-5-5-|--------------------|---5-5-5-5-5-5-5--|
|--------------------|---7-7-7-7-7-7-7-|--------------------|---7-7-7-7-7-7-7--|
|--------------------|-----------------|--------------------|------------------|
|--------------------|-----------------|--------------------|------------------|
|-4-4-4-4-4----4-4-4-|-----------------|-4-4-4-4-4----4-4-4-|------------------|
|-4-4-4-4-4----4-4-4-|-----------------|-4-4-4-4-4----4-4-4-|------------------|


  F#5                  F#m
  PM---------------|
  S S S S E Q  E E E   E E E E E E E E
|--------------------|---5-5-5-5-5-5-5-|
|--------------------|---7-7-7-7-7-7-7-|
|--------------------|-----------------|
|--------------------|-----------------|
|-4-4-4-4-4----4-4-4-|-----------------|
|-4-4-4-4-4----4-4-4-|-----------------|
|
| Gtr III
| W                    W
|--------------------|-----------------|
|--------------------|-----------------|
|--------------------|-----------------|
|--------------------|-----------------|
|--------------------|-----------------|
|--------------------|-----------------|


  F#5                  F#m
  PM---------------|                 ~~~
  S S S S E Q  E E E   E  E E E E E  Q
|--------------------|----5-5-5-5-5--5----|
|--------------------|----7-7-7-7-7--7----|
|--------------------|--------------------|
|--------------------|--------------------|
|-4-4-4-4-4----4-4-4-|--------------------|
|-4-4-4-4-4----4-4-4-|--------------------|
|
| W                    H.            Q
|--------------------|--------------------|
|--------------------|--------------------|
|--------------------|--------------------|
|--------------------|--------------------|
|--------------------|--------------12\---|
|--------------------|--------------12\---|


   "Children waiting for the.."
    F#5               A5                E5                B5
    E E E E E E E E   E E E E E E E E   E E E E E E E E   E  E E  E E  E E E
||------------------|-----------------|-----------------|---------------------||
||o-----------------|-----------------|-----------------|--------------------o||
||------------------|-2-2-2-2-2-2-2-2-|-----------------|-4--4-4--4-4--4-4-4--||
||--4-4-4-4-4-4-4-4-|-2-2-2-2-2-2-2-2-|-2-2-2-2-2-2-2-2-|-4--4-4--4-4--4-4-4--||
||o-4-4-4-4-4-4-4-4-|-0-0-0-0-0-0-0-0-|-2-2-2-2-2-2-2-2-|-2--2-2--2-2--2-2-2-o||
||--4-4-4-4-4-4-4-4-|-----------------|-2-2-2-2-2-2-2-2-|---------------------||
|
|   W                 W                 W                 E  E E  E E  E Q
||------------------|-----------------|-----------------|---------------------||
||o-----------------|-----------------|-----------------|--------------------o||
||------------------|-----------------|-----------------|---------------------||
||------------------|-----------------|-----------------|-9-11-9-11-9-11-7----||
||o-----------------|-----------------|-----------------|-x--x-x--x-x--x-x---o||
||------------------|-----------------|-----------------|-9-11-9-11-9-11-7----||


    F#5               A5                E5                B5
    E E E E E E E E   E E E E E E E E   E E E E E E E E   E E E E E E E E
||------------------|-----------------|-----------------|------------------||
||o-----------------|-----------------|-----------------|-----------------o||
||------------------|-2-2-2-2-2-2-2-2-|-----------------|-4-4-4-4-4-4-4-4--||
||--4-4-4-4-4-4-4-4-|-2-2-2-2-2-2-2-2-|-2-2-2-2-2-2-2-2-|-4-4-4-4-4-4-4-4--||
||o-4-4-4-4-4-4-4-4-|-0-0-0-0-0-0-0-0-|-2-2-2-2-2-2-2-2-|-2-2-2-2-2-2-2-2-o||
||--4-4-4-4-4-4-4-4-|-----------------|-2-2-2-2-2-2-2-2-|------------------||
|
|   E E E E E E E E   E E E E E E E E   E E E E E E E E   E E E E E E E E
||--5-5-5-5-5-5-5-5-|-4-4-4-4-4-4-4-4-|-5-5-5-5-5-5-5-5-|-5-5-5-5-5-5-5-5--||
||o-7-7-7-7-7-7-7-7-|-5-5-5-5-5-5-5-5-|-7-7-7-7-7-7-7-7-|-7-7-7-7-7-7-7-7-o||
||------------------|-----------------|-----------------|------------------||
||------------------|-----------------|-----------------|------------------||
||o-----------------|-----------------|-----------------|-----------------o||
||------------------|-----------------|-----------------|------------------||


   "And I find it kind of.."
    F#5               N.C.
    Gtr I
    E E E E E E E E   E E E E E E  E  E
||------------------|-------------------|
||o-----------------|-------------------|
||------------------|-7-7-7-9-9-9-11-11-|
||--4-4-4-4-4-4-4-4-|-x-x-x-x-x-x--x--x-|
||o-4-4-4-4-4-4-4-4-|-5-5-5-7-7-7--9--9-|
||--4-4-4-4-4-4-4-4-|-------------------|
|
|   Gtr II
|   E E E E E E E E   E E E E E E  E  E
||------------------|-------------------|
||o-----------------|-------------------|
||------------------|-4-4-4-7-7-7-11-11-|
||--4-4-4-4-4-4-4-4-|-x-x-x-x-x-x--x--x-|
||o-4-4-4-4-4-4-4-4-|-2-2-2-5-5-5--9--9-|
||--4-4-4-4-4-4-4-4-|-------------------|


  F#5               N.C.
  E E E E E E E E   E E E E E E  E  E
|-----------------|--------------------||
|-----------------|-------------------o||
|-----------------|-7-7-7-9-9-9-11-11--||
|-4-4-4-4-4-4-4-4-|-x-x-x-x-x-x--x--x--||
|-4-4-4-4-4-4-4-4-|-5-5-5-7-7-7--9--9-o||
|-4-4-4-4-4-4-4-4-|--------------------||
|
| E E E E E E E E   E E E E E E  E  E
|-----------------|--------------------||
|-----------------|-------------------o||
|-----------------|-4-4-4-7-7-7-11-11--||
|-4-4-4-4-4-4-4-4-|-x-x-x-x-x-x--x--x--||
|-4-4-4-4-4-4-4-4-|-2-2-2-5-5-5--9--9-o||
|-4-4-4-4-4-4-4-4-|--------------------||


   "Mad world.."
    F#5                  F#m
    Gtrs I, II
    PM---------------|
    S S S S E Q  E E E   E E E E E E E E
||---------------------|---5-5-5-5-5-5-5-|
||o--------------------|---7-7-7-7-7-7-7-|
||---------------------|-----------------|
||---------------------|-----------------|
||o-4-4-4-4-4----4-4-4-|-----------------|
||--4-4-4-4-4----4-4-4-|-----------------|


  F#5                  F#m
  PM---------------|
  S S S S E Q  E E E   E E E E E E E E
|--------------------|---5-5-5-5-5-5-5--||
|--------------------|---7-7-7-7-7-7-7-o||
|--------------------|------------------||
|--------------------|------------------||
|-4-4-4-4-4----4-4-4-|-----------------o||
|-4-4-4-4-4----4-4-4-|------------------||


 Interlude
  F#m                                                               D5
  Gtr I
                                                                     ~~~
  E E E E E E E E   E E E E E E E E   E E E E E E E E   E E E E E E  Q
|---5-5-5-5-5-5-5-|---5-5-5-5-5-5-5-|---5-5-5-5-5-5-5-|---5-5-5-5-5--5----|
|---7-7-7-7-7-7-7-|---7-7-7-7-7-7-7-|---7-7-7-7-7-7-7-|---7-7-7-7-7--7----|
|-----------------|-----------------|-----------------|-------------------|
|-----------------|-----------------|-----------------|-------------------|
|-----------------|-----------------|-----------------|-------------------|
|-----------------|-----------------|-----------------|-------------------|
|
| Gtr II
| E E E E E E E E   E E E E E E E E   E E E E E E E E   E E E E E E  Q
|-5-5-5-5-5-5-5-5-|-5-5-5-5-5-5-5-5-|-5-5-5-5-5-5-5-5-|-5-5-5-5-5-5-------|
|-7-7-7-7-7-7-7-7-|-7-7-7-7-7-7-7-7-|-7-7-7-7-7-7-7-7-|-7-7-7-7-7-7-------|
|-----------------|-----------------|-----------------|-------------------|
|-----------------|-----------------|-----------------|-------------------|
|-----------------|-----------------|-----------------|-------------12\---|
|-----------------|-----------------|-----------------|-------------12\---|


    F#5               N.C.
    E E E E E E E E   E E E E E E  E  E
||------------------|-------------------|
||o-----------------|-------------------|
||------------------|-7-7-7-9-9-9--4--4-|
||--4-4-4-4-4-4-4-4-|-x-x-x-x-x-x--x--x-|
||o-4-4-4-4-4-4-4-4-|-5-5-5-7-7-7--2--2-|
||--4-4-4-4-4-4-4-4-|-------------------|
|
|   E E E E E E E E   E E E E E E  E  E
||------------------|-------------------|
||o-----------------|-------------------|
||------------------|-4-4-4-7-7-7-11-11-|
||--4-4-4-4-4-4-4-4-|-x-x-x-x-x-x--x--x-|
||o-4-4-4-4-4-4-4-4-|-2-2-2-5-5-5--9--9-|
||--4-4-4-4-4-4-4-4-|-------------------|


  F#5               N.C.
  E E E E E E E E   E E E E E E  E  E
|-----------------|--------------------||
|-----------------|-------------------o||
|-----------------|-7-7-7-9-9-9--4--4--||
|-4-4-4-4-4-4-4-4-|-x-x-x-x-x-x--x--x--||
|-4-4-4-4-4-4-4-4-|-5-5-5-7-7-7--2--2-o||
|-4-4-4-4-4-4-4-4-|--------------------||
|
| E E E E E E E E   E E E E E E  E  E
|-----------------|--------------------||
|-----------------|-------------------o||
|-----------------|-4-4-4-7-7-7-11-11--||
|-4-4-4-4-4-4-4-4-|-x-x-x-x-x-x--x--x--||
|-4-4-4-4-4-4-4-4-|-2-2-2-5-5-5--9--9-o||
|-4-4-4-4-4-4-4-4-|--------------------||


   "Mad world.."
    F#5               N.C.
    E E E E E E E E   E E E E E E  E  E
||------------------|-------------------|
||o-----------------|-------------------|
||------------------|-------------------|
||--4-4-4-4-4-4-4-4-|-9-9-9-7-7-7-11-11-|
||o-4-4-4-4-4-4-4-4-|-x-x-x-x-x-x--x--x-|
||--4-4-4-4-4-4-4-4-|-9-9-9-7-7-7-11-11-|
|
|   E E E E E E E E   E E E E E E  E  E
||------------------|-------------------|
||o-----------------|-------------------|
||------------------|-7-7-7-9-9-9--6--6-|
||--4-4-4-4-4-4-4-4-|-x-x-x-x-x-x--x--x-|
||o-4-4-4-4-4-4-4-4-|-5-5-5-7-7-7--4--4-|
||--4-4-4-4-4-4-4-4-|-------------------|


  F#5               N.C.
  E E E E E E E E   E E E E E E  E  E
|-----------------|--------------------||
|-----------------|-------------------o||
|-----------------|--------------------||
|-4-4-4-4-4-4-4-4-|-9-9-9-7-7-7-11-11--||
|-4-4-4-4-4-4-4-4-|-x-x-x-x-x-x--x--x-o||
|-4-4-4-4-4-4-4-4-|-9-9-9-7-7-7-11-11--||
|
| E E E E E E E E   E E E E E E  E  E
|-----------------|--------------------||
|-----------------|-------------------o||
|-----------------|-7-7-7-9-9-9--6--6--||
|-4-4-4-4-4-4-4-4-|-x-x-x-x-x-x--x--x--||
|-4-4-4-4-4-4-4-4-|-5-5-5-7-7-7--4--4-o||
|-4-4-4-4-4-4-4-4-|--------------------||


 Outro
  F#5                  N.C.
  PM---------------|
  S S S S E Q  E E E   E E E E E E  E  E
|--------------------|-------------------|
|--------------------|-------------------|
|--------------------|-------------------|
|--------------------|-9-9-9-7-7-7-11-11-|
|-4-4-4-4-4----4-4-4-|-x-x-x-x-x-x--x--x-|
|-4-4-4-4-4----4-4-4-|-9-9-9-7-7-7-11-11-|
|
| PM---------------|
| S S S S E Q  E E E   E E E E E E  E  E
|--------------------|-------------------|
|--------------------|-------------------|
|--------------------|-7-7-7-9-9-9-11-11-|
|--------------------|-x-x-x-x-x-x--x--x-|
|-4-4-4-4-4----4-4-4-|-5-5-5-7-7-7--9--9-|
|-4-4-4-4-4----4-4-4-|-------------------|


  F#5                  N.C.
  PM---------------|
  S S S S E Q  E E E   E E E E E E  E  E
|--------------------|--------------------|
|--------------------|--------------------|
|--------------------|--------------------|
|--------------------|-9-9-9-7-7-7-11-11--|
|-4-4-4-4-4----4-4-4-|-x-x-x-x-x-x--x--x--|
|-4-4-4-4-4----4-4-4-|-9-9-9-7-7-7-11-11--|
|
| PM---------------|
| S S S S E Q  E E E   E E E E E E  E  E
|--------------------|--------------------|
|--------------------|--------------------|
|--------------------|-7-7-7-9-9-9-11-11--|
|--------------------|-x-x-x-x-x-x--x--x--|
|-4-4-4-4-4----4-4-4-|-5-5-5-7-7-7--9--9--|
|-4-4-4-4-4----4-4-4-|--------------------|


  F#5                  N.C.                F#5                  N.C.
  PM---------------|                       PM---------------|
  S S S S E Q  E E E   E E E E E E  E  E   S S S S E Q  E E E   W
|--------------------|-------------------|--------------------|------*|
|--------------------|-------------------|--------------------|------*|
|--------------------|-------------------|--------------------|------*|
|--------------------|-9-9-9-7-7-7-11-11-|--------------------|------*|
|-4-4-4-4-4----4-4-4-|-x-x-x-x-x-x--x--x-|-4-4-4-4-4----4-4-4-|------*|
|-4-4-4-4-4----4-4-4-|-9-9-9-7-7-7-11-11-|-4-4-4-4-4----4-4-4-|------*|
|
| PM---------------|                       PM---------------|
| S S S S E Q  E E E   E E E E E E  E  E   S S S S E Q  E E E   W
|--------------------|-------------------|--------------------|------*|
|--------------------|-------------------|--------------------|------*|
|--------------------|-7-7-7-9-9-9-11-11-|--------------------|------*|
|--------------------|-x-x-x-x-x-x--x--x-|--------------------|------*|
|-4-4-4-4-4----4-4-4-|-5-5-5-7-7-7--9--9-|-4-4-4-4-4----4-4-4-|------*|
|-4-4-4-4-4----4-4-4-|-------------------|-4-4-4-4-4----4-4-4-|------*|


Duration Legend
---------------
W - whole; H - half; Q - quarter; E - 8th; S - 16th; T - 32nd; X - 64th; a - acciaccatura
+ - note tied to previous; . - note dotted; .. - note double dotted
Uncapitalized letters represent notes that are staccato (1/2 duration)
Irregular groupings are notated above the duration line
Duration letters will always appear directly above the note/fret number it represents the
duration for.  Duration letters with no fret number below them represent rests.  Multi-
bar rests are notated in the form Wxn, where n is the number of bars to rest for.  Low
melody durations appear below the staff

Tablature Legend
----------------
 h   - hammer-on
 p   - pull-off
 b   - bend
 pb  - pre-bend
 r   - bend release (if no number after the r, then release immediately)
 /\  - slide into or out of (from/to "nowhere")
 s   - legato slide
 S   - shift slide
  - natural harmonic
[n]  - artificial harmonic
n(n) - tapped harmonic
 ~   - vibrato
 tr  - trill
 T   - tap
 TP  - trem. picking
 PM  - palm muting
\n/  - tremolo bar dip; n = amount to dip
 \n  - tremolo bar down
 n/  - tremolo bar up
/n\  - tremolo bar inverted dip
 =   - hold bend; also acts as connecting device for hammers/pulls
 <>  - volume swell (louder/softer)
 x   - on rhythm slash represents muted slash
 o   - on rhythm slash represents single note slash

Misc Legend
-----------
 |  - bar
||  - double bar
||o - repeat start
o|| - repeat end
*|  - double bar (ending)
 :  - bar (freetime)
 $  - Segno
 &  - Coda
Tempo markers -  = BPM(8/16=s8/s16), where s8 = swing 8ths, s16 = swing 16ths


***************************************************************************************
***************************************************************************************
            
Submit corrections

comments powered by Disqus
↑ Back to top | Evergreen Terrace Tabs for Mad World. Lyrics for acoustic guitar and electric guitar. 1 Tablatures and chords are parodies/interpretations of the original songs. You may use it for private study, scholarship, research or language learning purposes only