» » »

Enjoy The Silence Tabs (ver.2)

Artists:  A B C D E F G H I J K L M N O P Q R S T U V W X Y Z # 

Enjoy The Silence Tabs (ver.2)

Evergreen Terrace
Rating:
0/5 (0 votes)

Hard to play? Try these video lessons and learn fast.
                Tuning: Drop C



Intro:

Guitar 1+2:
d|-----------------|
a|-----------------|
f|-----------------|
C|-0-------3-------|  2x
G|-0-------3-------|
C|-0-------3-------|


Riff 1:

Guitar 1:
d|--------------------------|
a|--------------------------|
f|--------------------------|
C|-00----------33-----------|  2x
G|-00----------33-----------|
C|-00----------33-----------|    
PM ..          ..         

Guitar 2:
d|--------------------------|
a|--------------------------|
f|-----7-77-9-------7-77----|
C|----0-----------3------10-|  2x
G|--------------------------|
C|--------------------------|

Guitar 1:
d|--------------------------|
a|--------------------------|
f|--------------------------|
C|-00----------33-----------|  2x
G|-00----------33-----------|
C|-00----------33-----------|
PM ..          ..

Guitar 2:
d|--------------------------|
a|--------------------------|
f|---------7--------7-7-----|
C|----0-88-7------3-----10--|
G|--------------------------|
C|--------------------------|


Verse (1):

Guitar 1:
d|-------------------------|
a|-------------------------|
f|-------------------------|
C|-0-----3-----8-----8-----|  2x
G|-0-----3-----8-----8-----|
C|-0-----3-----8-----8-----|

Guitar 2:
d|-------------------------|
a|-------------------------|
f|-7777-101010-33333333333-|
C|-7777-101010-33333333333-|
G|-5555-8-8-8--11111111111-|
C|-0000--------------------|


Chorus (1):

Guitar 1:
d|--------------------------------------------------------|
a|--------------------------------------------------------|
f|-7-----10----7-----12-----7-----10----7-----------------|
C|-5-----8-----0-----10-----5-----8-----0-----6-----6-----|
G|-5-----8-----0-----10-----5-----8-----0-----6-----6-----|
C|-5-----8-----0-----10-----5-----8-----0-----4-----4-----|

Guitar 2:
d|--------------------------------------------------------|
a|--------------------------------------------------------|
f|-77777-33333-77777-55555--77777-33333-77777-66666-66666-|
C|-55555-33333-77777-55555--55555-33333-77777-66666-66666-|
G|-55555-11111-55555-33333--55555-11111-55555-44444-44444-|
C|--------------------------------------------------------|


Repeat Riff 1  1x


Verse (2):

d|-------------------------|
a|-------------------------|
f|-------------------------|
C|-------------------------|  2x
G|-00000-33333-88888-88888-|
C|-00000-33333-88888-88888-|
PM ...   ...   ....  . .  


Repeat Chorus (1)  1x


Bridge (1):

Guitar 1:
d|---------------------------------------|
a|---------------------------------------|
f|---------------------------------------|
C|---------------------------------------|
G|---------------------------------------|
C|-00-000--00-000---00-000--00-000--12/0-|

Bridge (2):

Guitar 1+2:
d|--------------------------------|
a|--------------------------------|
f|--------------------------------|
C|-00-000-00-000---00-000--00-000-|  2x
G|-00-000-00-000---00-000--00-000-|
C|-00-000-00-000---00-000--00-000-| 

d|----------------|
a|----------------|
f|----------------|
C|-0-0-0-0-0-0000-|  4x
G|-0-0-0-0-0-0000-|
C|-0-0-0-0-0-0000-|


Chorus (2):

Guitar 1:
d|--------------------------------------------------|
a|--------------------------------------------------|
f|-77777--------------------------------------6-----|
C|-55555-88888-0-----10-----5-----8-----0-----6-----|
G|-55555-88888-0-----10-----5-----8-----0-----4-----|
C|-55555-88888-0-----10-----5-----8-----0-----------|
  |___clean___|

Guitar 2:
d|---------1----------------------------------------|
a|---8----------------------------------------------|
f|--7-7---3-3--77777-55555--77777-33333-77777-66666-|
C|-5---5-3---3-77777-55555--55555-33333-77777-66666-|  
G|5-----1------55555-33333--55555-11111-55555-44444-|
C|--------------------------------------------------|
  |___clean___|


Repeat Chorus(1)  1x


Outro (1):

Guitar 1:
d|------------------|
a|------------------|
f|------------------|
C|-0000000-3333333--|  12x
G|-0000000-3333333--|
C|-0000000-3333333--|

Guitar 2:
d|------------------|
a|------------------|
f|--7---7---10--10--|
C|-7-7-7-7-10101010-|  12x
G|5---5---8----8----|
C|------------------|


Outro (2):

Guitar 1:
d|------------------|
a|------------------|
f|------------------|
C|-0-------3--------|  2x
G|-0-------3--------|
C|-0-------3--------|    

Guitar 2:
d|------------------|
a|------------------|
f|--777-9~--7-77----|
C|-0-------3----10-~|  2x
G|------------------|
C|------------------|

Guitar 1:
d|------------------|
a|------------------|
f|------------------|
C|-0-------3--------|  2x
G|-0-------3--------|
C|-0-------3--------| 

Guitar 2:
d|------------------|
a|------------------|
f|-----7~---7-7-----|
C|-088-7~--3---10~--|  2x
G|------------------|
C|------------------|


Repeat Outro (2)  1x
            
Hard to play? Try these video lessons and learn fast. | Correct




comments powered by Disqus
↑ Back to top | Tablatures and chords are parodies/interpretations of the original songs. You may use it for private study, scholarship, research or language learning purposes only