» » »

Evergreen Terrace, Dear Live Journal Tabs (ver.1)

Artists:  A B C D E F G H I J K L M N O P Q R S T U V W X Y Z # 

Dear Live Journal Tabs (ver.1)

Evergreen Terrace Tabs
 Rating:
4/5 (4 votes)
Dear Live Journal lessons Tabs too difficult? Try these video lessons and learn fast
1
                Evergreen Terrace - Dear Live Journal

intro/chorus

F-----999--121212--11-11-11--9--7------------------999-12-12-12-1111-11--9-7-------------------|
C------------------------------------5555555---------------------------------------------------|
G-----777--101010--9--9---9--7--5----3333333-------777-10-10-10-9--9--9--7-5------5555577777---|
C--222-----------------------------------------222--------------------------------5555577777---|


Verse

F--------------------------------------------------------------------------|
C---------------------------------------555-5555-555-5555------------------|
G---------------------------------------333-3333-333-3333------------------|
C--222-2222-222-2222-222-2222-222-2222-------------------------------------|
pm..............................................................

2nd Guitar
D----------------------------------------|
A------444-555-444-----------------------|
F--222-----------------------------------|
C----------------------------------------|


Pre-Chorus
F------------------------------|-------|
C------------------------------|-5555--|
G-777777777777-2222222222222---|-3333--|
C-777777777777-2222222222222---|-------|

Breakdown

F-------------------------|
C-------------------------|
G-22-22-22-22-22-22-22-22-|
C-22-22-22-22-22-22-22-22-|

then

F--------------------------999-101010-------|
C-------------------------------------------|
G-22-222-222-22-222-22-222-777--888---------|
C-22-222-222-22-222-22-222------------------|

Bridge:
F--9~-------12----9----------------------|
C--x---------x---------------------------|
G--7~------/10---/7----------------------|
C----------------------------------------|

Bridge 2

F-9999999----------------------------------------|
C------------------------------------------------|
G-7777777-99999999-101010101010-1212121212121212-|
C---------99999999-101010101010-1212121212121212-|


Outro:
A----------------------------------------|
F----------------------------------------|
C---------444-555-777--------------------|
G--222-2--222-333-555--------------------|
C--222-2---------------------------------|
pm......
            
Submit corrections

comments powered by Disqus
↑ Back to top | Evergreen Terrace Tabs for Dear Live Journal. Lyrics for acoustic guitar and electric guitar. 1 Tablatures and chords are parodies/interpretations of the original songs. You may use it for private study, scholarship, research or language learning purposes only