>
 >
Chaney Can´T Quite Riff Like Helmet´S Page Hamilton

Chaney Can´T Quite Riff Like Helmet´S Page Hamilton Guitar Tabs

Evergreen Terrace - Chaney Can´T Quite Riff Like Helmet´S Page Hamilton chords, tabs, tablatures, lyrics

Guitar lessons | Add/correct | Request | Top 50 tabs Artists:  A B C D E F G H I J K L M N O P Q R S T U V W X Y Z 0-9

Chaney Can´T Quite Riff Like Helmet´S Page Hamilton Guitar Tabs – Evergreen Terrace

CD, Sheet music, Poster

Do you like Chaney Can´T Quite Riff Like Helmet´S Page Hamilton? Share with your friends now
Tabs
I'm uploading this just because of a request of somebody who couldn't download my
guitar pro file. Sorry if this is too long, I have just copied and pasted both guitar tracks.

Both guitars tuned in Dropped C#

Guitar 1
       Reverb                                                             
       S      S   S   S   S   S   S   S   S   S   S   S   S   S   S   S   
D#||---------------------------------------------------------------------|
A#||---------------------------------------------------------------------|
F#||--(7)----(7)-(7)-(7)-(7)-(7)-(7)-(7)-(7)-(7)-(7)-(7)-(7)-(7)-(7)-(7)-|
C#||--(7)----(7)-(7)-(7)-(7)-(7)-(7)-(7)-(7)-(7)-(7)-(7)-(7)-(7)-(7)-(7)-|
G#||--(5)----(5)-(5)-(5)-(5)-(5)-(5)-(5)-(5)-(5)-(5)-(5)-(5)-(5)-(5)-(5)-|
C#||---------------------------------------------------------------------|


   S   S   S   S   S   S   S   S   S   S   S   S   S   S   S   S   
--(7)-(7)-(7)-(7)-(7)-(7)-(7)-(7)-(7)-(7)-(7)-(7)-(7)-(7)-(7)-(7)-|
--(7)-(7)-(7)-(7)-(7)-(7)-(7)-(7)-(7)-(7)-(7)-(7)-(7)-(7)-(7)-(7)-|
--(5)-(5)-(5)-(5)-(5)-(5)-(5)-(5)-(5)-(5)-(5)-(5)-(5)-(5)-(5)-(5)-|


   S   S   S   S   S   S   S   S   S   S   S   S   S   S   S   S   
--(9)-(9)-(9)-(9)-(9)-(9)-(9)-(9)-(9)-(9)-(9)-(9)-(9)-(9)-(9)-(9)-|
--(7)-(7)-(7)-(7)-(7)-(7)-(7)-(7)-(7)-(7)-(7)-(7)-(7)-(7)-(7)-(7)-|
--(5)-(5)-(5)-(5)-(5)-(5)-(5)-(5)-(5)-(5)-(5)-(5)-(5)-(5)-(5)-(5)-|


   S   S   S   S   S   S   S   S   S   S   S   S   S   S   S   S   
--(9)-(9)-(9)-(9)-(9)-(9)-(9)-(9)-(9)-(9)-(9)-(9)-(9)-(9)---------|
--(7)-(7)-(7)-(7)-(7)-(7)-(7)-(7)-(7)-(7)-(7)-(7)-(7)-(7)-(3)-(3)-|
--(5)-(5)-(5)-(5)-(5)-(5)-(5)-(5)-(5)-(5)-(5)-(5)-(5)-(5)-(3)-(3)-|
----------------------------------------------------------(3)-(3)-|


   S   S   S   S   S   S   S   S   S   S   S   S   S   S   S   S   
--(5)-(5)-(5)-(5)-(5)-(5)-(5)-(5)-(5)-(5)-(5)-(5)-(5)-(5)-(5)-(5)-|
--(5)-(5)-(5)-(5)-(5)-(5)-(5)-(5)-(5)-(5)-(5)-(5)-(5)-(5)-(5)-(5)-|
--(5)-(5)-(5)-(5)-(5)-(5)-(5)-(5)-(5)-(5)-(5)-(5)-(5)-(5)-(5)-(5)-|


   S   S   S   S   S   S   S   S   S   S   S   S   S   S   S   S   
--(5)-(5)-(5)-(5)-(5)-(5)-(5)-(5)-(5)-(5)-(5)-(5)-(5)-(5)-(5)-(5)-|
--(5)-(5)-(5)-(5)-(5)-(5)-(5)-(5)-(5)-(5)-(5)-(5)-(5)-(5)-(5)-(5)-|
--(5)-(5)-(5)-(5)-(5)-(5)-(5)-(5)-(5)-(5)-(5)-(5)-(5)-(5)-(5)-(5)-|


   S   S   S   S   S   S   S   S   S   S   S   S   S   S   S   S   
--(8)-(8)-(8)-(8)-(8)-(8)-(8)-(8)-(8)-(8)-(8)-(8)-(8)-(8)-(8)-(8)-|
--(8)-(8)-(8)-(8)-(8)-(8)-(8)-(8)-(8)-(8)-(8)-(8)-(8)-(8)-(8)-(8)-|
--(8)-(8)-(8)-(8)-(8)-(8)-(8)-(8)-(8)-(8)-(8)-(8)-(8)-(8)-(8)-(8)-|


   S   S   S   S   S   S   S   S   S   S   S   S   S   S   S   S   
--(8)-(8)-(8)-(8)-(8)-(8)-(8)-(8)-(8)-(8)-(8)-(8)-(8)-(8)-(8)-(8)-|
--(8)-(8)-(8)-(8)-(8)-(8)-(8)-(8)-(8)-(8)-(8)-(8)-(8)-(8)-(8)-(8)-|
--(8)-(8)-(8)-(8)-(8)-(8)-(8)-(8)-(8)-(8)-(8)-(8)-(8)-(8)-(8)-(8)-|


   Reverb                                                             
   S      S   S   S   S   S   S   S   S   S   S   S   S   S   S   S   
--(7)----(7)-(7)-(7)-(7)-(7)-(7)-(7)-(7)-(7)-(7)-(7)-(7)-(7)-(7)-(7)-|
--(7)----(7)-(7)-(7)-(7)-(7)-(7)-(7)-(7)-(7)-(7)-(7)-(7)-(7)-(7)-(7)-|
--(5)----(5)-(5)-(5)-(5)-(5)-(5)-(5)-(5)-(5)-(5)-(5)-(5)-(5)-(5)-(5)-|


   S   S   S   S   S   S   S   S   S   S   S   S   S   S   S   S   
--(7)-(7)-(7)-(7)-(7)-(7)-(7)-(7)-(7)-(7)-(7)-(7)-(7)-(7)-(7)-(7)-|
--(7)-(7)-(7)-(7)-(7)-(7)-(7)-(7)-(7)-(7)-(7)-(7)-(7)-(7)-(7)-(7)-|
--(5)-(5)-(5)-(5)-(5)-(5)-(5)-(5)-(5)-(5)-(5)-(5)-(5)-(5)-(5)-(5)-|


   S   S   S   S   S   S   S   S   S   S   S   S   S   S   S   S   
--(9)-(9)-(9)-(9)-(9)-(9)-(9)-(9)-(9)-(9)-(9)-(9)-(9)-(9)-(9)-(9)-|
--(7)-(7)-(7)-(7)-(7)-(7)-(7)-(7)-(7)-(7)-(7)-(7)-(7)-(7)-(7)-(7)-|
--(5)-(5)-(5)-(5)-(5)-(5)-(5)-(5)-(5)-(5)-(5)-(5)-(5)-(5)-(5)-(5)-|


   S   S   S   S   S   S   S   S   S   S   S   S   S   S   S   S   
--(9)-(9)-(9)-(9)-(9)-(9)-(9)-(9)-(9)-(9)-(9)-(9)-(9)-(9)---------|
--(7)-(7)-(7)-(7)-(7)-(7)-(7)-(7)-(7)-(7)-(7)-(7)-(7)-(7)-(3)-(3)-|
--(5)-(5)-(5)-(5)-(5)-(5)-(5)-(5)-(5)-(5)-(5)-(5)-(5)-(5)-(3)-(3)-|
----------------------------------------------------------(3)-(3)-|


   S   S   S   S   S   S   S   S   S   S   S   S   S   S   S   S   
--(5)-(5)-(5)-(5)-(5)-(5)-(5)-(5)-(5)-(5)-(5)-(5)-(5)-(5)-(5)-(5)-|
--(5)-(5)-(5)-(5)-(5)-(5)-(5)-(5)-(5)-(5)-(5)-(5)-(5)-(5)-(5)-(5)-|
--(5)-(5)-(5)-(5)-(5)-(5)-(5)-(5)-(5)-(5)-(5)-(5)-(5)-(5)-(5)-(5)-|


   S   S   S   S   S   S   S   S   S   S   S   S   S   S   S   S   
--(5)-(5)-(5)-(5)-(5)-(5)-(5)-(5)-(5)-(5)-(5)-(5)-(5)-(5)-(5)-(5)-|
--(5)-(5)-(5)-(5)-(5)-(5)-(5)-(5)-(5)-(5)-(5)-(5)-(5)-(5)-(5)-(5)-|
--(5)-(5)-(5)-(5)-(5)-(5)-(5)-(5)-(5)-(5)-(5)-(5)-(5)-(5)-(5)-(5)-|


   S   S   S   S   S   S   S   S   S   S   S   S   S   S   S   S   
--(8)-(8)-(8)-(8)-(8)-(8)-(8)-(8)-(8)-(8)-(8)-(8)-(8)-(8)-(8)-(8)-|
--(8)-(8)-(8)-(8)-(8)-(8)-(8)-(8)-(8)-(8)-(8)-(8)-(8)-(8)-(8)-(8)-|
--(8)-(8)-(8)-(8)-(8)-(8)-(8)-(8)-(8)-(8)-(8)-(8)-(8)-(8)-(8)-(8)-|


  E  Q.      E.   E.   E     E  S E  S E  E  S E  S E   
--------------------------|----------------------------|
--------------------------|----------------------------|
--------------------------|--7--7-7--7-7--7--7-7--7-7--|
--8---------10---10---10--|--7--7-7--7-7--7--7-7--7-7--|
--8---------10---10---10--|--5--5-5--5-5--5--5-5--5-5--|
--8---------10---10---10--|----------------------------|


  E  S E  S E  E  S E  S E     E  S E  S E  E  S E  S E   
----------------------------|----------------------------|
----------------------------|----------------------------|
----------------------------|----------------------------|
--3--3-3--3-3--5--5-5--5-5--|--8--8-8--8-8--8--8-8--8-8--|
--5--5-5--5-5--5--5-5--5-5--|--8--8-8--8-8--8--8-8--8-8--|
----------------------------|--8--8-8--8-8--8--8-8--8-8--|


   E    S   E    S   E   E  S S S S S S    E  S E  S E  E  S E  S E   
----------------------------------------|----------------------------|
--(8)--(8)-(8)--(8)-(8)--8--8-8-8-8-8-8-|----------------------------|
--(7)--(7)-(7)--(7)-(7)--7--7-7-7-7-7-7-|--7--7-7--7-7--7--7-7--7-7--|
---5----5---5----5---5---5--5-5-5-5-5-5-|--7--7-7--7-7--7--7-7--7-7--|
---5----5---5----5---5---5--5-5-5-5-5-5-|--5--5-5--5-5--5--5-5--5-5--|
---5----5---5----5---5---5--5-5-5-5-5-5-|----------------------------|


  E  S E  S E  E  S E  S E     E  S E  S E  E  S E  S E   
----------------------------|----------------------------|
----------------------------|----------------------------|
----------------------------|----------------------------|
--3--3-3--3-3--5--5-5--5-5--|--8--8-8--8-8--8--8-8--8-8--|
--5--5-5--5-5--5--5-5--5-5--|--8--8-8--8-8--8--8-8--8-8--|
----------------------------|--8--8-8--8-8--8--8-8--8-8--|


   E    S   E    S   E   E  S S S S S S    E  S E  S E  E  S E  S E   
----------------------------------------|----------------------------|
--(8)--(8)-(8)--(8)-(8)--8--8-8-8-8-8-8-|----------------------------|
--(7)--(7)-(7)--(7)-(7)--7--7-7-7-7-7-7-|--7--7-7--7-7--7--7-7--7-7--|
---5----5---5----5---5---5--5-5-5-5-5-5-|--7--7-7--7-7--7--7-7--7-7--|
---5----5---5----5---5---5--5-5-5-5-5-5-|--5--5-5--5-5--5--5-5--5-5--|
---5----5---5----5---5---5--5-5-5-5-5-5-|----------------------------|


  E  S E  S E  E  S E  S E     E  S E  S E  E  S E  S E   
----------------------------|----------------------------|
----------------------------|----------------------------|
----------------------------|----------------------------|
--3--3-3--3-3--5--5-5--5-5--|--8--8-8--8-8--8--8-8--8-8--|
--5--5-5--5-5--5--5-5--5-5--|--8--8-8--8-8--8--8-8--8-8--|
----------------------------|--8--8-8--8-8--8--8-8--8-8--|


  E  S E  S E  E  S E  S E     E  S E  S E  E  S E  S E   
----------------------------|----------------------------|
--8--8-8--8-8--8--8-8--8-8--|----------------------------|
--7--7-7--7-7--7--7-7--7-7--|--7--7-7--7-7--7--7-7--7-7--|
--5--5-5--5-5--5--5-5--5-5--|--7--7-7--7-7--7--7-7--7-7--|
--5--5-5--5-5--5--5-5--5-5--|--5--5-5--5-5--5--5-5--5-5--|
--5--5-5--5-5--5--5-5--5-5--|----------------------------|


  E  S E  S E  E  S E  S E     E  S E  S E  E  S E  S E   
----------------------------|----------------------------|
----------------------------|----------------------------|
----------------------------|----------------------------|
--3--3-3--3-3--5--5-5--5-5--|--8--8-8--8-8--8--8-8--8-8--|
--5--5-5--5-5--5--5-5--5-5--|--8--8-8--8-8--8--8-8--8-8--|
----------------------------|--8--8-8--8-8--8--8-8--8-8--|


                               ^                                     
  E  S E  S E  E  S E  S E     W                   W                 
----------------------------|-------------------|-------------------|
--8--8-8--8-8--8--8-8--8-8--|--3----------------|--L----------------|
--7--7-7--7-7--7--7-7--7-7--|--2----------------|--L----------------|
--5--5-5--5-5--5--5-5--5-5--|--0----------------|--L----------------|
--5--5-5--5-5--5--5-5--5-5--|--0----------------|--L----------------|
--5--5-5--5-5--5--5-5--5-5--|--0----------------|--L----------------|


  W                   H         T  T  T  T  T  T  T  T  T  T  T  T  T  T  T T  
-------------------|----------------------------------------------------------|
--L----------------|--L-------------------------------------------------------|
--L----------------|--L-------------------------------------------------------|
--L----------------|--L-------------------------------------------------------|
--L----------------|--L--------24-23-22-21-20-19-18-17-16-15-14-13-12-11-10-9-|
--L----------------|--L--------24-23-22-21-20-19-18-17-16-15-14-13-12-11-10-9-|


                                                          ^                 
  E  S E  S Q    E  E  E     E  S E  S E  E  S E  S E     W                 
--------------------------|----------------------------|-------------------|
--------------------------|----------------------------|--3----------------|
--------------------------|----------------------------|--2----------------|
--8--8-8--8-8----8--8--3--|--5--5-5--5-5--5--5-5--5-5--|--0----------------|
--8--8-8--8-8----8--8--3--|--5--5-5--5-5--5--5-5--5-5--|--0----------------|
--8--8-8--8-8----8--8--3--|--5--5-5--5-5--5--5-5--5-5--|--0----------------|


  W                   W                 
-------------------|-------------------|
--L----------------|--L----------------|
--L----------------|--L----------------|
--L----------------|--L----------------|
--L----------------|--L----------------|
--L----------------|--L----------------|


  H         T  T  T  T  T  T  T  T  T  T  T  T  T  T  T T  
----------------------------------------------------------|
--L-------------------------------------------------------|
--L-------------------------------------------------------|
--L-------------------------------------------------------|
--L--------24-23-22-21-20-19-18-17-16-15-14-13-12-11-10-9-|
--L--------24-23-22-21-20-19-18-17-16-15-14-13-12-11-10-9-|


  E  S E  S Q    E  E  E     E  S E  S E  E  S E  S E   
--------------------------|----------------------------|
--------------------------|----------------------------|
--------------------------|----------------------------|
--8--8-8--8-8----8--8--3--|--5--5-5--5-5--5--5-5--5-5--|
--8--8-8--8-8----8--8--3--|--5--5-5--5-5--5--5-5--5-5--|
--8--8-8--8-8----8--8--3--|--5--5-5--5-5--5--5-5--5-5--|


  E  S E  S Q    E  E  E     E  S E  S E  E  E  E  E   
--------------------------|---------------------------|
--------------------------|---------------------------|
--------------------------|---------------5--5--5--5--|
--8--8-8--8-8----8--8--3--|--5--5-5--5-5--5--5--5--5--|
--8--8-8--8-8----8--8--3--|--5--5-5--5-5--3--3--3--3--|
--8--8-8--8-8----8--8--3--|--5--5-5--5-5--------------|


   E   E   E   E   E   E   E   E      E   E   E   E   E   E   E   E   
--10--10--10--10--10--10--10--10--|--10--10--10--10--10--10---8---8--|
--10--10--10--10--10--10--10--10--|--10--10--10--10--10--10--10--10--|
----------------------------------|----------------------------------|
----------------------------------|----------------------------------|
----------------------------------|----------------------------------|
----------------------------------|----------------------------------|


   E   E   E   E   E   E   E   E      E   E   E   E   E   E   E   E   
--12--12--12--12--12--12--12--12--|--12--12--12--12--12--12--12---8--|
--10--10--10--10--10--10--10--10--|--10--10--10--10--10--10--10--10--|
----------------------------------|----------------------------------|
----------------------------------|----------------------------------|
----------------------------------|----------------------------------|
----------------------------------|----------------------------------|


   E   E   E   E   E   E   E   E      E   E   E   E   E   E   E   E   
--10--10---8---8--12--12---8---8--|--10--10---8--12--12--12---8---8--|
--10--10--10--10--10--10--10--10--|--10--10--10--10--10--10--10--10--|
----------------------------------|----------------------------------|
----------------------------------|----------------------------------|
----------------------------------|----------------------------------|
----------------------------------|----------------------------------|


   E   E   E   E   E   E   E   E      E   E   E   E   E   E   E   E   
--10--10---8---8--12--12---8---8--|--10--10---8--12--12--12---8---8--|
--10--10--10--10--10--10--10--10--|--10--10--10--10--10--10--10--10--|
----------------------------------|----------------------------------|
----------------------------------|----------------------------------|
----------------------------------|----------------------------------|
----------------------------------|----------------------------------|


   E   E   E   E   E   E   E   E      E   E   E   E   E   E   E   E   
--10--10--10--10--10--10--10--10--|--10--10--10--10--10--10---8---8--|
--10--10--10--10--10--10--10--10--|--10--10--10--10--10--10--10--10--|
----------------------------------|----------------------------------|
----------------------------------|----------------------------------|
----------------------------------|----------------------------------|
----------------------------------|----------------------------------|


   E   E   E   E   E   E   E   E      E   E   E   E   E   E   E   E   
--12--12--12--12--12--12--12--12--|--12--12--12--12--12--12--12---8--|
--10--10--10--10--10--10--10--10--|--10--10--10--10--10--10--10--10--|
----------------------------------|----------------------------------|
----------------------------------|----------------------------------|
----------------------------------|----------------------------------|
----------------------------------|----------------------------------|


   E   E   E   E   E   E   E   E      E   E   E   E   E   E   E   E   
--10--10---8---8--12--12---8---8--|--10--10---8--12--12--12---8---8--|
--10--10--10--10--10--10--10--10--|--10--10--10--10--10--10--10--10--|
----------------------------------|----------------------------------|
----------------------------------|----------------------------------|
----------------------------------|----------------------------------|
----------------------------------|----------------------------------|


   E   E   E   E   E   E   E   E      E   E   E   E   E   E   E   E   
--10--10---8---8--12--12---8---8--|--10--10---8--12--12--12---8---8--|
--10--10--10--10--10--10--10--10--|--10--10--10--10--10--10--10--10--|
----------------------------------|----------------------------------|
----------------------------------|----------------------------------|
----------------------------------|----------------------------------|
----------------------------------|----------------------------------|


  ^                                                                             
  W                   W                   W                   W                 
-------------------|-------------------|-------------------|-------------------|
--3----------------|--L----------------|--L----------------|--L----------------|
--2----------------|--L----------------|--L----------------|--L----------------|
--0----------------|--L----------------|--L----------------|--L----------------|
--0----------------|--L----------------|--L----------------|--L----------------|
--0----------------|--L----------------|--L----------------|--L----------------|


  E  S E  S Q    E  E  E     E  S E  S E  E  S E  S E   
--------------------------|----------------------------|
--------------------------|----------------------------|
--------------------------|----------------------------|
--8--8-8--8-8----8--8--3--|--5--5-5--5-5--5--5-5--5-5--|
--8--8-8--8-8----8--8--3--|--5--5-5--5-5--5--5-5--5-5--|
--8--8-8--8-8----8--8--3--|--5--5-5--5-5--5--5-5--5-5--|


  S S S S S S S S S S S S S S S S    S S S S S S S S S S S S S S S S  
----------------------------------|----------------------------------|
----------------------------------|----------------------------------|
----------------------------------|----------------------------------|
----------------------------------|----------------------------------|
--x-x-x-x-x-x-x-x-x-x-x-x-x-x-x-x-|--x-x-x-x-x-x-x-x-x-x-x-x-x-x-x-x-|
--0-0-0-0-0-0-0-0-0-0-0-0-0-0-0-0-|--0-0-0-0-0-0-0-0-0-0-0-0-0-0-0-0-|


  S S S S S S S S S S S S S S S S    S S S S S S S S S S S S S S S S  
----------------------------------|----------------------------------|
----------------------------------|----------------------------------|
----------------------------------|----------------------------------|
----------------------------------|----------------------------------|
--x-x-x-x-x-x-x-x-x-x-x-x-x-x-x-x-|--x-x-x-x-x-x-x-x-x-x-x-x-x-x-x-x-|
--0-0-0-0-0-0-0-0-0-0-0-0-0-0-0-0-|--0-0-0-0-0-0-0-0-0-0-0-0-0-0-0-0-|


  E  S E  S Q    E  E  E     E  S E  S E  E  S E  S E   
--------------------------|----------------------------|
--------------------------|----------------------------|
--------------------------|----------------------------|
--8--8-8--8-8----8--8--3--|--5--5-5--5-5--5--5-5--5-5--|
--8--8-8--8-8----8--8--3--|--5--5-5--5-5--5--5-5--5-5--|
--8--8-8--8-8----8--8--3--|--5--5-5--5-5--5--5-5--5-5--|


  E  S E  S Q    E  E  E     E  S E  S E  E  E  E  E   
--------------------------|---------------------------|
--------------------------|---------------------------|
--------------------------|---------------5--5--5--5--|
--8--8-8--8-8----8--8--3--|--5--5-5--5-5--5--5--5--5--|
--8--8-8--8-8----8--8--3--|--5--5-5--5-5--3--3--3--3--|
--8--8-8--8-8----8--8--3--|--5--5-5--5-5--------------|


  S S S S S S  E  S S S S S S S S    S S S S S S  E  E.  E.  E   
----------------------------------|-----------------------------|
----------------------------------|-----------------------------|
----------------------------------|-----------------------------|
--0-0-3-0-0-3s-5--0-0-3-0-5-3-0-0-|--0-0-3-0-0-3s-5--3---3---3--|
----------------------------------|------------------3---3---3--|
----------------------------------|------------------3---3---3--|


  S S S S S S  E  S S S S S S S S    S S S S S S  E  E.  E.  E   
----------------------------------|-----------------------------|
----------------------------------|-----------------------------|
----------------------------------|-----------------------------|
--0-0-3-0-0-3s-5--0-0-3-0-5-3-0-0-|--0-0-3-0-0-3s-5--3---3---3--|
----------------------------------|------------------3---3---3--|
----------------------------------|------------------3---3---3--|


  S S S S S S  E  S S S S S S S S    S S S S S S  E  E.  E.  E   
----------------------------------|-----------------------------|
----------------------------------|-----------------------------|
----------------------------------|-----------------------------|
--0-0-3-0-0-3s-5--0-0-3-0-5-3-0-0-|--0-0-3-0-0-3s-5--3---3---3--|
----------------------------------|------------------3---3---3--|
----------------------------------|------------------3---3---3--|


  S S S S S S  E  S S S S S S S S    S S S S S S  E  E.  E.  S S   
----------------------------------|-------------------------------|
----------------------------------|-------------------------------|
----------------------------------|------------------5---5---5----|
--0-0-3-0-0-3s-5--0-0-3-0-5-3-0-0-|--0-0-3-0-0-3s-5--5---5---5-0s-|
----------------------------------|------------------3---3---3----|
----------------------------------|-------------------------------|


   S S S  S S S  S S  S   S S S  S S  S S  
------------------------------------------|
------------------------------------------|
------------------------------------------|
--12-0-0-12-0-0-14-0-14h-15-0-0-14-0-15-0-|
------------------------------------------|
------------------------------------------|


   S   S S  S S S  S S  S   S S  S   S S  S S  
----------------------------------------------|
----------------------------------------------|
----------------------------------------------|
--15h-17-0-20-0-0-19-0-17h-19-0-15p-14-0-15-0-|
----------------------------------------------|
----------------------------------------------|


   S   S S  S S S  S   S S S  S S  S S S S  
-------------------------------------------|
-------------------------------------------|
-------------------------------------------|
--10h-12-0-15-0-0-14p-12-0-0-10-0-12-0-0-0-|
-------------------------------------------|
-------------------------------------------|


   S S S  S S S  S S S  S S S  S S S S  
---------------------------------------|
---------------------------------------|
---------------------------------------|
--12-0-0-15-0-0-17-0-0-14-0-0-10-0-0-0-|
---------------------------------------|
---------------------------------------|


   S S S  S S S  S S  S   S S S  S S  S S  
------------------------------------------|
------------------------------------------|
------------------------------------------|
--12-0-0-12-0-0-14-0-14h-15-0-0-14-0-15-0-|
------------------------------------------|
------------------------------------------|


   S  S  S  S  S  S  S S  S  S  S  S  S  S  S  S  
-------------------------------------------------|
-------------------------------------------------|
-------------------------------------------------|
--20-20-20-20-20-20-20-0-19-19-19-19-19-19-19-19-|
-------------------------------------------------|
-------------------------------------------------|


   S S S  S S S  S S S  S S S  S S S S    S S S S S S S S S S S S Q      
---------------------------------------|--------------------------------|
---------------------------------------|--------------------------------|
---------------------------------------|--------------------------------|
--12-0-0-15-0-0-17-0-0-14-0-0-10-0-0-0-|--0-0-0-3-0-0-5-0-0-2-0-0-------|
---------------------------------------|--------------------------3~----|
---------------------------------------|--------------------------------|


  E   E      E     E    E    E.   S  E    
-----------------------------------------|
-----------------------------------------|
-----(7)s--(10)s--(9)--(7)--(5)---x-(7)--|
-----------------------------------------|
------5s-----8s----7----5----3----x--5---|
-----------------------------------------|


  E   E      E      E   E   E   E   E      E  S E.  E  E  E  E  S  S  
----------------------------------------|----------------------------|
----------------------------------------|----------------------------|
--L--(7)s--(10)s--(12)--x--(9)--x--(5)--|--5--5-5---7--7--7--7--7s-5-|
----------------------------------------|----------------------------|
--L---5s-----8s----10---x---7---x---3---|--3--3-3---5--5--5--5--5s-3-|
----------------------------------------|----------------------------|


  E  S E.  E  E  E  E  E      E    E      E     E    E    E.   S  E    
--------------------------|-------------------------------------------|
--------------------------|-------------------------------------------|
--5--5-5---7--7--7--7--7--|--(7)--(7)s--(10)s--(9)--(7)--(5)---x-(7)--|
--------------------------|-------------------------------------------|
--3--3-3---5--5--5--5--5--|--(5)---5s-----8s----7----5----3----x--5---|
--------------------------|-------------------------------------------|


  E   E      E      E   E   E   E   E      E  S E.  E  E  E  E  S  S  
----------------------------------------|----------------------------|
----------------------------------------|----------------------------|
--L--(7)s--(10)s--(12)--x--(9)--x--(5)--|--5--5-5---7--7--7--7--7s-5-|
----------------------------------------|----------------------------|
--L---5s-----8s----10---x---7---x---3---|--3--3-3---5--5--5--5--5s-3-|
----------------------------------------|----------------------------|


  E  S E.  E  E  E  E  E     W                   H         E.  E.  E   
--------------------------|-------------------|-----------------------|
--------------------------|-------------------|-----------------------|
--5--5-5---7--7--7--7--7--|-------------------|-----------/8---8---8--|
--------------------------|--0----------------|--L--------/7---7---7--|
--3--3-3---5--5--5--5--5--|--0----------------|--L--------/6---6---6--|
--------------------------|--0----------------|--L--------------------|


  W                   H         E.  E.  E     W                 
-------------------|-----------------------|-------------------|
-------------------|-----------------------|-------------------|
-------------------|-----------/8---8---8--|-------------------|
--0----------------|--L--------/7---7---7--|--0----------------|
--0----------------|--L--------/6---6---6--|--0----------------|
--0----------------|--L--------------------|--0----------------|


  H         E.  E.  E     W                   H        S S S S S S S S  
-----------------------|-------------------|---------------------------|
-----------------------|-------------------|---------------------------|
-----------/8---8---8--|-------------------|---------------------------|
--L--------/7---7---7--|--0----------------|--L------------------------|
--L--------/6---6---6--|--0----------------|--L------------------------|
--L--------------------|--0----------------|--L--------0-0-0---0-0-0---|


  S S S E.  E   S S S E.  E      S S S E.  E   S S S S S S S S  
------------------------------|--------------------------------|
------------------------------|--------------------------------|
------------------------------|--------------------------------|
------------------------------|--------------------------------|
--------5---5\--------6---6\--|--------5---5\------------------|
--0-0-0---------0-0-0---------|--0-0-0---------0-0-0---0-0-0---|


  S S S E.  E   S S S E.  E      S S S E.  E   S S S S S S S S  
------------------------------|--------------------------------|
------------------------------|--------------------------------|
------------------------------|--------------------------------|
------------------------------|--------------------------------|
--------5---5\--------6---6\--|--------5---5\------------------|
--0-0-0---------0-0-0---------|--0-0-0---------0-0-0---0-0-0---|


  S S S E.  E   S S S E.  E      S S S E.  E   S S S S S S S S  
------------------------------|--------------------------------|
------------------------------|--------------------------------|
------------------------------|--------------------------------|
------------------------------|--------------------------------|
--------5---5\--------6---6\--|--------5---5\------------------|
--0-0-0---------0-0-0---------|--0-0-0---------0-0-0---0-0-0---|


  S S S E.  E   S S S E.  E      S S S E.  E   S S S S S S S S  
------------------------------|--------------------------------|
------------------------------|--------------------------------|
------------------------------|--------------------------------|
------------------------------|--------------------------------|
--------5---5\--------6---6\--|--------5---5\------------------|
--0-0-0---------0-0-0---------|--0-0-0---------0-0-0---0-0-0---|


   S   S   S   S   S   S   S   S   S   S   S   S   S   S   S   S   
--(3)-(3)-(3)-(3)-(3)-(3)-(3)-(3)-(3)-(3)-(3)-(3)-(3)-(3)-(3)-(3)-|
--(7)-(7)-(7)-(7)-(7)-(7)-(7)-(7)-(7)-(7)-(7)-(7)-(7)-(7)-(7)-(7)-|


   S   S   S   S   S   S   S   S   S   S   S   S   S   S   S   S   
--(3)-(3)-(3)-(3)-(3)-(3)-(3)-(3)-(3)-(3)-(3)-(3)-(3)-(3)-(3)-(3)-|
--(7)-(7)-(7)-(7)-(7)-(7)-(7)-(7)-(7)-(7)-(7)-(7)-(7)-(7)-(7)-(7)-|


   S   S   S   S   S   S   S   S   S   S   S   S   S   S   S   S   
--(3)-(3)-(3)-(3)-(3)-(3)-(3)-(3)-(3)-(3)-(3)-(3)-(3)-(3)-(3)-(3)-|
--(7)-(7)-(7)-(7)-(7)-(7)-(7)-(7)-(7)-(7)-(7)-(7)-(7)-(7)-(7)-(7)-|


   S   S   S   S   S   S   S   S   S   S   S   S   S   S   S   S   
--(3)-(3)-(3)-(3)-(3)-(3)-(3)-(3)-(3)-(3)-(3)-(3)-(3)-(3)-(3)-(3)-|
--(7)-(7)-(7)-(7)-(7)-(7)-(7)-(7)-(7)-(7)-(7)-(7)-(7)-(7)-(7)-(7)-|


   S   S   S   S   S   S   S   S   S   S   S   S   S   S   S   S   
--(3)-(3)-(3)-(3)-(3)-(3)-(3)-(3)-(3)-(3)-(3)-(3)-(3)-(3)-(3)-(3)-|
--(7)-(7)-(7)-(7)-(7)-(7)-(7)-(7)-(7)-(7)-(7)-(7)-(7)-(7)-(7)-(7)-|


   S   S   S   S   S   S   S   S   S   S   S   S   S   S   S   S   
--(3)-(3)-(3)-(3)-(3)-(3)-(3)-(3)-(3)-(3)-(3)-(3)-(3)-(3)-(3)-(3)-|
--(7)-(7)-(7)-(7)-(7)-(7)-(7)-(7)-(7)-(7)-(7)-(7)-(7)-(7)-(7)-(7)-|


   S   S   S   S   S   S   S   S   S   S   S   S   S   S   S   S   
--(3)-(3)-(3)-(3)-(3)-(3)-(3)-(3)-(3)-(3)-(3)-(3)-(3)-(3)-(3)-(3)-|
--(7)-(7)-(7)-(7)-(7)-(7)-(7)-(7)-(7)-(7)-(7)-(7)-(7)-(7)-(7)-(7)-|


   S   S   S   S   S   S   S   S   S   S   S   S   S   S   S   S   
--(3)-(3)-(3)-(3)-(3)-(3)-(3)-(3)-(3)-(3)-(3)-(3)-(3)-(3)-(3)-(3)-|
--(7)-(7)-(7)-(7)-(7)-(7)-(7)-(7)-(7)-(7)-(7)-(7)-(7)-(7)-(7)-(7)-|


   Reverb                                                             
   S      S   S   S   S   S   S   S   S   S   S   S   S   S   S   S   
--(7)----(7)-(7)-(7)-(7)-(7)-(7)-(7)-(7)-(7)-(7)-(7)-(7)-(7)-(7)-(7)-|
--(7)----(7)-(7)-(7)-(7)-(7)-(7)-(7)-(7)-(7)-(7)-(7)-(7)-(7)-(7)-(7)-|
--(5)----(5)-(5)-(5)-(5)-(5)-(5)-(5)-(5)-(5)-(5)-(5)-(5)-(5)-(5)-(5)-|


   S   S   S   S   S   S   S   S   S   S   S   S   S   S   S   S   
--(7)-(7)-(7)-(7)-(7)-(7)-(7)-(7)-(7)-(7)-(7)-(7)-(7)-(7)-(7)-(7)-|
--(7)-(7)-(7)-(7)-(7)-(7)-(7)-(7)-(7)-(7)-(7)-(7)-(7)-(7)-(7)-(7)-|
--(5)-(5)-(5)-(5)-(5)-(5)-(5)-(5)-(5)-(5)-(5)-(5)-(5)-(5)-(5)-(5)-|


   S   S   S   S   S   S   S   S   S   S   S   S   S   S   S   S   
--(9)-(9)-(9)-(9)-(9)-(9)-(9)-(9)-(9)-(9)-(9)-(9)-(9)-(9)-(9)-(9)-|
--(7)-(7)-(7)-(7)-(7)-(7)-(7)-(7)-(7)-(7)-(7)-(7)-(7)-(7)-(7)-(7)-|
--(5)-(5)-(5)-(5)-(5)-(5)-(5)-(5)-(5)-(5)-(5)-(5)-(5)-(5)-(5)-(5)-|


   S   S   S   S   S   S   S   S   S   S   S   S   S   S   S   S   
--(9)-(9)-(9)-(9)-(9)-(9)-(9)-(9)-(9)-(9)-(9)-(9)-(9)-(9)---------|
--(7)-(7)-(7)-(7)-(7)-(7)-(7)-(7)-(7)-(7)-(7)-(7)-(7)-(7)-(3)-(3)-|
--(5)-(5)-(5)-(5)-(5)-(5)-(5)-(5)-(5)-(5)-(5)-(5)-(5)-(5)-(3)-(3)-|
----------------------------------------------------------(3)-(3)-|


   S   S   S   S   S   S   S   S   S   S   S   S   S   S   S   S   
--(5)-(5)-(5)-(5)-(5)-(5)-(5)-(5)-(5)-(5)-(5)-(5)-(5)-(5)-(5)-(5)-|
--(5)-(5)-(5)-(5)-(5)-(5)-(5)-(5)-(5)-(5)-(5)-(5)-(5)-(5)-(5)-(5)-|
--(5)-(5)-(5)-(5)-(5)-(5)-(5)-(5)-(5)-(5)-(5)-(5)-(5)-(5)-(5)-(5)-|


   S   S   S   S   S   S   S   S   S   S   S   S   S   S   S   S   
--(5)-(5)-(5)-(5)-(5)-(5)-(5)-(5)-(5)-(5)-(5)-(5)-(5)-(5)-(5)-(5)-|
--(5)-(5)-(5)-(5)-(5)-(5)-(5)-(5)-(5)-(5)-(5)-(5)-(5)-(5)-(5)-(5)-|
--(5)-(5)-(5)-(5)-(5)-(5)-(5)-(5)-(5)-(5)-(5)-(5)-(5)-(5)-(5)-(5)-|


   S   S   S   S   S   S   S   S   S   S   S   S   S   S   S   S   
--(8)-(8)-(8)-(8)-(8)-(8)-(8)-(8)-(8)-(8)-(8)-(8)-(8)-(8)-(8)-(8)-|
--(8)-(8)-(8)-(8)-(8)-(8)-(8)-(8)-(8)-(8)-(8)-(8)-(8)-(8)-(8)-(8)-|
--(8)-(8)-(8)-(8)-(8)-(8)-(8)-(8)-(8)-(8)-(8)-(8)-(8)-(8)-(8)-(8)-|


  S S S S S S S S S S S S  S  S  S  S     E   E   E   E   E   E   E   E   
--------------------------------------|--10--10--10--10--10--10--10--10--|
--------------------------------------|--10--10--10--10--10--10--10--10--|
--3-3-3-3-5-5-5-5-7-7-7-7-10-10-10-10-|----------------------------------|
--------------------------------------|----------------------------------|
--1-1-1-1-3-3-3-3-5-5-5-5--8--8--8--8-|----------------------------------|
--------------------------------------|----------------------------------|


   E   E   E   E   E   E   E   E      E   E   E   E   E   E   E   E   
--10--10--10--10--10--10---8---8--|--12--12--12--12--12--12--12--12--|
--10--10--10--10--10--10--10--10--|--10--10--10--10--10--10--10--10--|
----------------------------------|----------------------------------|
----------------------------------|----------------------------------|
----------------------------------|----------------------------------|
----------------------------------|----------------------------------|


   E   E   E   E   E   E   E   E      E   E   E   E   E   E   E   E   
--12--12--12--12--12--12--12---8--|--10--10---8---8--12--12---8---8--|
--10--10--10--10--10--10--10--10--|--10--10--10--10--10--10--10--10--|
----------------------------------|----------------------------------|
----------------------------------|----------------------------------|
----------------------------------|----------------------------------|
----------------------------------|----------------------------------|


   E   E   E   E   E   E   E   E      E   E   E   E   E   E   E   E   
--10--10---8--12--12--12---8---8--|--10--10---8---8--12--12---8---8--|
--10--10--10--10--10--10--10--10--|--10--10--10--10--10--10--10--10--|
----------------------------------|----------------------------------|
----------------------------------|----------------------------------|
----------------------------------|----------------------------------|
----------------------------------|----------------------------------|


   E   E   E   E   E   E   E   E      E   E   E   E   E   E   E   E   
--10--10---8--12--12--12---8---8--|--10--10--10--10--10--10--10--10--|
--10--10--10--10--10--10--10--10--|--10--10--10--10--10--10--10--10--|
----------------------------------|----------------------------------|
----------------------------------|----------------------------------|
----------------------------------|----------------------------------|
----------------------------------|----------------------------------|


   E   E   E   E   E   E   E   E      E   E   E   E   E   E   E   E   
--10--10--10--10--10--10---8---8--|--12--12--12--12--12--12--12--12--|
--10--10--10--10--10--10--10--10--|--10--10--10--10--10--10--10--10--|
----------------------------------|----------------------------------|
----------------------------------|----------------------------------|
----------------------------------|----------------------------------|
----------------------------------|----------------------------------|


   E   E   E   E   E   E   E   E      E   E   E   E   E   E   E   E   
--12--12--12--12--12--12--12---8--|--10--10---8---8--12--12---8---8--|
--10--10--10--10--10--10--10--10--|--10--10--10--10--10--10--10--10--|
----------------------------------|----------------------------------|
----------------------------------|----------------------------------|
----------------------------------|----------------------------------|
----------------------------------|----------------------------------|


   E   E   E   E   E   E   E   E      E   E   E   E   E   E   E   E   
--10--10---8--12--12--12---8---8--|--10--10---8---8--12--12---8---8--|
--10--10--10--10--10--10--10--10--|--10--10--10--10--10--10--10--10--|
----------------------------------|----------------------------------|
----------------------------------|----------------------------------|
----------------------------------|----------------------------------|
----------------------------------|----------------------------------|


   E   E   E   E   E   E   E   E      E   E   E   E   E   E   E   E   
--10--10---8--12--12--12---8---8--|--10--10--10--10--10--10--10--10--|
--10--10--10--10--10--10--10--10--|--10--10--10--10--10--10--10--10--|
----------------------------------|----------------------------------|
----------------------------------|----------------------------------|
----------------------------------|----------------------------------|
----------------------------------|----------------------------------|


   E   E   E   E   E   E   E   E      E   E   E   E   E   E   E   E   
--10--10--10--10--10--10---8---8--|--12--12--12--12--12--12--12--12--|
--10--10--10--10--10--10--10--10--|--10--10--10--10--10--10--10--10--|
----------------------------------|----------------------------------|
----------------------------------|----------------------------------|
----------------------------------|----------------------------------|
----------------------------------|----------------------------------|


   E   E   E   E   E   E   E   E      E   E   E   E   E   E   E   E   
--12--12--12--12--12--12--12---8--|--10--10---8---8--12--12---8---8--|
--10--10--10--10--10--10--10--10--|--10--10--10--10--10--10--10--10--|
----------------------------------|----------------------------------|
----------------------------------|----------------------------------|
----------------------------------|----------------------------------|
----------------------------------|----------------------------------|


   E   E   E   E   E   E   E   E      E   E   E   E   E   E   E   E   
--10--10---8--12--12--12---8---8--|--10--10---8---8--12--12---8---8--|
--10--10--10--10--10--10--10--10--|--10--10--10--10--10--10--10--10--|
----------------------------------|----------------------------------|
----------------------------------|----------------------------------|
----------------------------------|----------------------------------|
----------------------------------|----------------------------------|


   E   E   E   E   E   E   E   E      E   E   E   E   E   E   E   E   
--10--10---8--12--12--12---8---8--|--10--10--10--10--10--10--10--10--|
--10--10--10--10--10--10--10--10--|--10--10--10--10--10--10--10--10--|
----------------------------------|----------------------------------|
----------------------------------|----------------------------------|
----------------------------------|----------------------------------|
----------------------------------|----------------------------------|


   E   E   E   E   E   E   E   E      E   E   E   E   E   E   E   E   
--10--10--10--10--10--10---8---8--|--12--12--12--12--12--12--12--12--|
--10--10--10--10--10--10--10--10--|--10--10--10--10--10--10--10--10--|
----------------------------------|----------------------------------|
----------------------------------|----------------------------------|
----------------------------------|----------------------------------|
----------------------------------|----------------------------------|


   E   E   E   E   E   E   E   E      E   E   E   E   E   E   E   E   
--12--12--12--12--12--12--12---8--|--10--10---8---8--12--12---8---8--|
--10--10--10--10--10--10--10--10--|--10--10--10--10--10--10--10--10--|
----------------------------------|----------------------------------|
----------------------------------|----------------------------------|
----------------------------------|----------------------------------|
----------------------------------|----------------------------------|


   E   E   E   E   E   E   E   E      E   E   E   E   E   E   E   E   
--10--10---8--12--12--12---8---8--|--10--10---8---8--12--12---8---8--|
--10--10--10--10--10--10--10--10--|--10--10--10--10--10--10--10--10--|
----------------------------------|----------------------------------|
----------------------------------|----------------------------------|
----------------------------------|----------------------------------|
----------------------------------|----------------------------------|


   E   E   E   E   E   E   E   E      E   E   E   E   E   E   E   E   
--10--10---8--12--12--12---8---8--|--10--10--10--10--10--10--10--10--|
--10--10--10--10--10--10--10--10--|--10--10--10--10--10--10--10--10--|
----------------------------------|----------------------------------|
----------------------------------|----------------------------------|
----------------------------------|----------------------------------|
----------------------------------|----------------------------------|


   E   E   E   E   E   E   E   E      E   E   E   E   E   E   E   E   
--10--10--10--10--10--10---8---8--|--12--12--12--12--12--12--12--12--|
--10--10--10--10--10--10--10--10--|--10--10--10--10--10--10--10--10--|
----------------------------------|----------------------------------|
----------------------------------|----------------------------------|
----------------------------------|----------------------------------|
----------------------------------|----------------------------------|


   E   E   E   E   E   E   E   E      E   E   E   E   E   E   E   E   
--12--12--12--12--12--12--12---8--|--10--10---8---8--12--12---8---8--|
--10--10--10--10--10--10--10--10--|--10--10--10--10--10--10--10--10--|
----------------------------------|----------------------------------|
----------------------------------|----------------------------------|
----------------------------------|----------------------------------|
----------------------------------|----------------------------------|


   E   E   E   E   E   E   E   E      E   E   E   E   E   E   E   E   
--10--10---8--12--12--12---8---8--|--10--10---8---8--12--12---8---8--|
--10--10--10--10--10--10--10--10--|--10--10--10--10--10--10--10--10--|
----------------------------------|----------------------------------|
----------------------------------|----------------------------------|
----------------------------------|----------------------------------|
----------------------------------|----------------------------------|


   E   E   E   E   E   E   E   E    
--10--10---8--12--12--12---8---8--||
--10--10--10--10--10--10--10--10--||
----------------------------------||
----------------------------------||
----------------------------------||
----------------------------------||







Guitar 2
D#||-------|-------|-------|-------|-------|-------|-------|-------|-------|
A#||-------|-------|-------|-------|-------|-------|-------|-------|-------|
F#||-------|-------|-------|-------|-------|-------|-------|-------|-------|
C#||-------|-------|-------|-------|-------|-------|-------|-------|-------|
G#||-------|-------|-------|-------|-------|-------|-------|-------|-------|
C#||-------|-------|-------|-------|-------|-------|-------|-------|-------|


                                                  E  Q.      E.   E.   E   
-------|-------|-------|-------|-------|-------|--------------------------|
-------|-------|-------|-------|-------|-------|--------------------------|
-------|-------|-------|-------|-------|-------|--------------------------|
-------|-------|-------|-------|-------|-------|--8---------10---10---10--|
-------|-------|-------|-------|-------|-------|--8---------10---10---10--|
-------|-------|-------|-------|-------|-------|--8---------10---10---10--|


  E  S E  S E  E  S E  S E     E  S E  S E  E  S E  S E   
----------------------------|----------------------------|
----------------------------|----------------------------|
--7--7-7--7-7--7--7-7--7-7--|----------------------------|
--7--7-7--7-7--7--7-7--7-7--|--3--3-3--3-3--5--5-5--5-5--|
--5--5-5--5-5--5--5-5--5-5--|--5--5-5--5-5--5--5-5--5-5--|
----------------------------|----------------------------|


  E  S E  S E  E  S E  S E      E    S   E    S   E   E  S S S S S S  
----------------------------|----------------------------------------|
----------------------------|--(8)--(8)-(8)--(8)-(8)--8--8-8-8-8-8-8-|
----------------------------|--(7)--(7)-(7)--(7)-(7)--7--7-7-7-7-7-7-|
--8--8-8--8-8--8--8-8--8-8--|---5----5---5----5---5---5--5-5-5-5-5-5-|
--8--8-8--8-8--8--8-8--8-8--|---5----5---5----5---5---5--5-5-5-5-5-5-|
--8--8-8--8-8--8--8-8--8-8--|---5----5---5----5---5---5--5-5-5-5-5-5-|


  E  S E  S E  E  S E  S E     E  S E  S E  E  S E  S E   
----------------------------|----------------------------|
----------------------------|----------------------------|
--7--7-7--7-7--7--7-7--7-7--|----------------------------|
--7--7-7--7-7--7--7-7--7-7--|--3--3-3--3-3--5--5-5--5-5--|
--5--5-5--5-5--5--5-5--5-5--|--5--5-5--5-5--5--5-5--5-5--|
----------------------------|----------------------------|


  E  S E  S E  E  S E  S E      E    S   E    S   E   E  S S S S S S  
----------------------------|----------------------------------------|
----------------------------|--(8)--(8)-(8)--(8)-(8)--8--8-8-8-8-8-8-|
----------------------------|--(7)--(7)-(7)--(7)-(7)--7--7-7-7-7-7-7-|
--8--8-8--8-8--8--8-8--8-8--|---5----5---5----5---5---5--5-5-5-5-5-5-|
--8--8-8--8-8--8--8-8--8-8--|---5----5---5----5---5---5--5-5-5-5-5-5-|
--8--8-8--8-8--8--8-8--8-8--|---5----5---5----5---5---5--5-5-5-5-5-5-|


  E  S E  S E     E.  E.  E     E  S E  S E     E.  E.  E   
-----------------------------|-----------------------------|
-----------------------------|-----------------------------|
--7--7-7--7-7--7g10---9---5--|--7--7-7--7-7--7g10---9---5--|
-----------------------------|-----------------------------|
--5--5-5--5-5---5g8---7---3--|--5--5-5--5-5---5g8---7---3--|
-----------------------------|-----------------------------|


  E  S E  S E     E.  E.   E      E   S  E   S  E    E.   E.  E   
------------------------------|----------------------------------|
------------------------------|----------------------------------|
--3--3-3--3-3--7g10---9---10--|--12--12-12--12-12--7g9---10---9--|
------------------------------|----------------------------------|
--1--1-1--1-1---5g8---7----8--|--10--10-10--10-10--5g7----8---7--|
------------------------------|----------------------------------|


  E  S E  S E     E.  E.  E     E  S E  S E     E.  E.  E   
-----------------------------|-----------------------------|
-----------------------------|-----------------------------|
--7--7-7--7-7--7g10---9---5--|--7--7-7--7-7--7g10---9---5--|
-----------------------------|-----------------------------|
--5--5-5--5-5---5g8---7---3--|--5--5-5--5-5---5g8---7---3--|
-----------------------------|-----------------------------|


  E  S E  S E     E.  E.   E      E   S  E   S  E    E.   E.  E   
------------------------------|----------------------------------|
------------------------------|----------------------------------|
--3--3-3--3-3--7g10---9---10--|--12--12-12--12-12--7g9---10---9--|
------------------------------|----------------------------------|
--1--1-1--1-1---5g8---7----8--|--10--10-10--10-10--5g7----8---7--|
------------------------------|----------------------------------|


  W                   W                   W                   W                 
-------------------|-------------------|-------------------|-------------------|
-------------------|-------------------|-------------------|-------------------|
--7----------------|--L----------------|--L----------------|--L----------------|
--7----------------|--L----------------|--L----------------|--L----------------|
--5----------------|--L----------------|--L----------------|--L----------------|
-------------------|-------------------|-------------------|-------------------|


  E  S E  S Q    E  E  E     E  S E  S E  E  S E  S E     W                 
--------------------------|----------------------------|-------------------|
--------------------------|----------------------------|-------------------|
--------------------------|----------------------------|--7----------------|
--8--8-8--8-8----8--8--3--|--5--5-5--5-5--5--5-5--5-5--|--7----------------|
--8--8-8--8-8----8--8--3--|--5--5-5--5-5--5--5-5--5-5--|--5----------------|
--8--8-8--8-8----8--8--3--|--5--5-5--5-5--5--5-5--5-5--|-------------------|


  W                   W                   W                 
-------------------|-------------------|-------------------|
-------------------|-------------------|-------------------|
--L----------------|--L----------------|--L----------------|
--L----------------|--L----------------|--L----------------|
--L----------------|--L----------------|--L----------------|
-------------------|-------------------|-------------------|


  E  S E  S Q    E  E  E     E  S E  S E  E  S E  S E   
--------------------------|----------------------------|
--------------------------|----------------------------|
--------------------------|----------------------------|
--8--8-8--8-8----8--8--3--|--5--5-5--5-5--5--5-5--5-5--|
--8--8-8--8-8----8--8--3--|--5--5-5--5-5--5--5-5--5-5--|
--8--8-8--8-8----8--8--3--|--5--5-5--5-5--5--5-5--5-5--|


  E  S E  S Q    E  E  E     E  S E  S E  E  E  E  E   
--------------------------|---------------------------|
--------------------------|---------------------------|
--------------------------|---------------5--5--5--5--|
--8--8-8--8-8----8--8--3--|--5--5-5--5-5--5--5--5--5--|
--8--8-8--8-8----8--8--3--|--5--5-5--5-5--3--3--3--3--|
--8--8-8--8-8----8--8--3--|--5--5-5--5-5--------------|


  E  E  E  E  E  E  E  E     E  E  E  E  E  E  E  E   
--------------------------|--------------------------|
--------------------------|--------------------------|
--7--7--7--7--7--7--7--7--|--7--7--7--7--7--7--7--7--|
--7--7--7--7--7--7--7--7--|--7--7--7--7--7--7--7--7--|
--5--5--5--5--5--5--5--5--|--5--5--5--5--5--5--5--5--|
--------------------------|--------------------------|


  E  E  E  E  E  E  E  E     E  E  E  E  E  E  E  E   
--------------------------|--------------------------|
--------------------------|--------------------------|
--7--7--7--7--7--7--7--7--|--7--7--7--7--7--7--7--7--|
--7--7--7--7--7--7--7--7--|--7--7--7--7--7--7--7--7--|
--5--5--5--5--5--5--5--5--|--5--5--5--5--5--5--5--5--|
--------------------------|--------------------------|


  E  E  E  E  E  E  E  E     E  E  E  E  E  E  E  E   
--------------------------|--------------------------|
--------------------------|--------------------------|
--------------------------|--------------------------|
--5--5--5--5--5--5--5--5--|--5--5--5--5--5--5--5--5--|
--5--5--5--5--5--5--5--5--|--5--5--5--5--5--5--5--5--|
--5--5--5--5--5--5--5--5--|--5--5--5--5--5--5--5--5--|


  E  E  E  E  E  E  E  E     E  E  E  E  E  E  E  E   
--------------------------|--------------------------|
--------------------------|--------------------------|
--------------------------|--------------------------|
--8--8--8--8--8--8--8--8--|--8--8--8--8--8--8--8--8--|
--8--8--8--8--8--8--8--8--|--8--8--8--8--8--8--8--8--|
--8--8--8--8--8--8--8--8--|--8--8--8--8--8--8--8--8--|


  E  E  E  E  E  E  E  E     E  E  E  E  E  E  E  E   
--------------------------|--------------------------|
--------------------------|--------------------------|
--7--7--7--7--7--7--7--7--|--7--7--7--7--7--7--7--7--|
--7--7--7--7--7--7--7--7--|--7--7--7--7--7--7--7--7--|
--5--5--5--5--5--5--5--5--|--5--5--5--5--5--5--5--5--|
--------------------------|--------------------------|


  E  E  E  E  E  E  E  E     E  E  E  E  E  E  E  E   
--------------------------|--------------------------|
--------------------------|--------------------------|
--7--7--7--7--7--7--7--7--|--7--7--7--7--7--7--7--7--|
--7--7--7--7--7--7--7--7--|--7--7--7--7--7--7--7--7--|
--5--5--5--5--5--5--5--5--|--5--5--5--5--5--5--5--5--|
--------------------------|--------------------------|


  E  E  E  E  E  E  E  E     E  E  E  E  E  E  E  E   
--------------------------|--------------------------|
--------------------------|--------------------------|
--------------------------|--------------------------|
--5--5--5--5--5--5--5--5--|--5--5--5--5--5--5--5--5--|
--5--5--5--5--5--5--5--5--|--5--5--5--5--5--5--5--5--|
--5--5--5--5--5--5--5--5--|--5--5--5--5--5--5--5--5--|


  E  E  E  E  E  E  E  E     E  E  E  E  E  E  E  E     W                 
--------------------------|--------------------------|-------------------|
--------------------------|--------------------------|-------------------|
--------------------------|--------------------------|--7----------------|
--8--8--8--8--8--8--8--8--|--8--8--8--8--8--8--8--8--|--7----------------|
--8--8--8--8--8--8--8--8--|--8--8--8--8--8--8--8--8--|--5----------------|
--8--8--8--8--8--8--8--8--|--8--8--8--8--8--8--8--8--|-------------------|


  W                   W                   W                 
-------------------|-------------------|-------------------|
-------------------|-------------------|-------------------|
--L----------------|--L----------------|--L----------------|
--L----------------|--L----------------|--L----------------|
--L----------------|--L----------------|--L----------------|
-------------------|-------------------|-------------------|


  E  S E  S Q    E  E  E     E  S E  S E  E  S E  S E     W                 
--------------------------|----------------------------|-------------------|
--------------------------|----------------------------|-------------------|
--------------------------|----------------------------|--7----------------|
--8--8-8--8-8----8--8--3--|--5--5-5--5-5--5--5-5--5-5--|--7----------------|
--8--8-8--8-8----8--8--3--|--5--5-5--5-5--5--5-5--5-5--|--5----------------|
--8--8-8--8-8----8--8--3--|--5--5-5--5-5--5--5-5--5-5--|-------------------|


  W                   W                   W                 
-------------------|-------------------|-------------------|
-------------------|-------------------|-------------------|
--L----------------|--L----------------|--L----------------|
--L----------------|--L----------------|--L----------------|
--L----------------|--L----------------|--L----------------|
-------------------|-------------------|-------------------|


  E  S E  S Q    E  E  E     E  S E  S E  E  S E  S E   
--------------------------|----------------------------|
--------------------------|----------------------------|
--------------------------|----------------------------|
--8--8-8--8-8----8--8--3--|--5--5-5--5-5--5--5-5--5-5--|
--8--8-8--8-8----8--8--3--|--5--5-5--5-5--5--5-5--5-5--|
--8--8-8--8-8----8--8--3--|--5--5-5--5-5--5--5-5--5-5--|


  E  S E  S Q    E  E  E     E  S E  S E  E  E  E  E   
--------------------------|---------------------------|
--------------------------|---------------------------|
--------------------------|---------------5--5--5--5--|
--8--8-8--8-8----8--8--3--|--5--5-5--5-5--5--5--5--5--|
--8--8-8--8-8----8--8--3--|--5--5-5--5-5--3--3--3--3--|
--8--8-8--8-8----8--8--3--|--5--5-5--5-5--------------|


  E  S S S S S S E  S S S S S S    E  S S S S S S E.  E.  E   
--------------------------------|----------------------------|
--------------------------------|----------------------------|
--------------------------------|----------------------------|
--0--------------0--------------|--0--------------3---3---3--|
--0--x-x-x-x-x-x-0--x-x-x-x-x-x-|--0--x-x-x-x-x-x-3---3---3--|
--0--0-0-0-0-0-0-0--0-0-0-0-0-0-|--0--0-0-0-0-0-0-3---3---3--|


  E  S S S S S S E  S S S S S S    E  S S S S S S E.  E.  E   
--------------------------------|----------------------------|
--------------------------------|----------------------------|
--------------------------------|----------------------------|
--0--------------0--------------|--0--------------3---3---3--|
--0--x-x-x-x-x-x-0--x-x-x-x-x-x-|--0--x-x-x-x-x-x-3---3---3--|
--0--0-0-0-0-0-0-0--0-0-0-0-0-0-|--0--0-0-0-0-0-0-3---3---3--|


  E  S S S S S S E  S S S S S S    E  S S S S S S E.  E.  E   
--------------------------------|----------------------------|
--------------------------------|----------------------------|
--------------------------------|----------------------------|
--0--------------0--------------|--0--------------3---3---3--|
--0--x-x-x-x-x-x-0--x-x-x-x-x-x-|--0--x-x-x-x-x-x-3---3---3--|
--0--0-0-0-0-0-0-0--0-0-0-0-0-0-|--0--0-0-0-0-0-0-3---3---3--|


  E  S S S S S S E  S S S S S S    E  Q.      E.   E.   E   
--------------------------------|--------------------------|
--------------------------------|--------------------------|
--------------------------------|--------------------------|
--0--------------0--------------|--0---------10---10---10--|
--0--x-x-x-x-x-x-0--x-x-x-x-x-x-|--0---------10---10---10--|
--0--0-0-0-0-0-0-0--0-0-0-0-0-0-|--0---------10---10---10--|


  E  S E  S E  E  S E  S E     E  S E  S E  E  S E  S E   
----------------------------|----------------------------|
----------------------------|----------------------------|
--7--7-7--7-7--7--7-7--7-7--|----------------------------|
--7--7-7--7-7--7--7-7--7-7--|--3--3-3--3-3--5--5-5--5-5--|
--5--5-5--5-5--5--5-5--5-5--|--5--5-5--5-5--5--5-5--5-5--|
----------------------------|----------------------------|


  E  S E  S E  E  S E  S E     E  S E  S E  E  S E  S E   
----------------------------|----------------------------|
----------------------------|--8--8-8--8-8--8--8-8--8-8--|
----------------------------|--7--7-7--7-7--7--7-7--7-7--|
--8--8-8--8-8--8--8-8--8-8--|--5--5-5--5-5--5--5-5--5-5--|
--8--8-8--8-8--8--8-8--8-8--|--5--5-5--5-5--5--5-5--5-5--|
--8--8-8--8-8--8--8-8--8-8--|--5--5-5--5-5--5--5-5--5-5--|


  E  S E  S E  E  S E  S E     E  S E  S E  E  S E  S E   
----------------------------|----------------------------|
----------------------------|----------------------------|
--7--7-7--7-7--7--7-7--7-7--|----------------------------|
--7--7-7--7-7--7--7-7--7-7--|--3--3-3--3-3--5--5-5--5-5--|
--5--5-5--5-5--5--5-5--5-5--|--5--5-5--5-5--5--5-5--5-5--|
----------------------------|----------------------------|


  E  S E  S E  E  S E  S E     E  S E  S E  E  S E  S E   
----------------------------|----------------------------|
----------------------------|--8--8-8--8-8--8--8-8--8-8--|
----------------------------|--7--7-7--7-7--7--7-7--7-7--|
--8--8-8--8-8--8--8-8--8-8--|--5--5-5--5-5--5--5-5--5-5--|
--8--8-8--8-8--8--8-8--8-8--|--5--5-5--5-5--5--5-5--5-5--|
--8--8-8--8-8--8--8-8--8-8--|--5--5-5--5-5--5--5-5--5-5--|


  E  S E  S E  E  S E  S E     E  S E  S E  E  S E  S E   
----------------------------|----------------------------|
----------------------------|----------------------------|
--7--7-7--7-7--7--7-7--7-7--|----------------------------|
--7--7-7--7-7--7--7-7--7-7--|--3--3-3--3-3--5--5-5--5-5--|
--5--5-5--5-5--5--5-5--5-5--|--5--5-5--5-5--5--5-5--5-5--|
----------------------------|----------------------------|


  E  S E  S E  E  S E  S E     E  S E  S E  E  S E  S E   
----------------------------|----------------------------|
----------------------------|--8--8-8--8-8--8--8-8--8-8--|
----------------------------|--7--7-7--7-7--7--7-7--7-7--|
--8--8-8--8-8--8--8-8--8-8--|--5--5-5--5-5--5--5-5--5-5--|
--8--8-8--8-8--8--8-8--8-8--|--5--5-5--5-5--5--5-5--5-5--|
--8--8-8--8-8--8--8-8--8-8--|--5--5-5--5-5--5--5-5--5-5--|


  E  S E  S E  E  S E  S E     E  S E  S E  E  S E  S E   
----------------------------|----------------------------|
----------------------------|----------------------------|
--7--7-7--7-7--7--7-7--7-7--|----------------------------|
--7--7-7--7-7--7--7-7--7-7--|--3--3-3--3-3--5--5-5--5-5--|
--5--5-5--5-5--5--5-5--5-5--|--5--5-5--5-5--5--5-5--5-5--|
----------------------------|----------------------------|


  E  S E  S E  E  S E  S E     E  S E  S E  E  S E  S E     W                 
----------------------------|----------------------------|-------------------|
----------------------------|--8--8-8--8-8--8--8-8--8-8--|-------------------|
----------------------------|--7--7-7--7-7--7--7-7--7-7--|-------------------|
--8--8-8--8-8--8--8-8--8-8--|--5-





Comments


Popular Evergreen Terrace tabs & chords
Dogfight Bass Tabs
Enjoy The Silence Bass Tabs
Mad World Bass Tabs
No Donnie, These Men Are Nihilist Bass Tabs
Enjoy The Silence Tabs
Funeral Grade Flowers Tabs
No Donnie, These Men Are Nihilist Tabs
Plowed (Sponge) Tabs
Stars Tabs
Untitled Tabs


Song lyrics



↑ Back to top | Tablatures and chords are parodies/interpretations of the original songs. You may use it for private study, scholarship, research or language learning purposes only
© 2014 AZChords.com Contact us | Privacy policy | DMCA | Add/correct tabs | Request tabs | Top 50 tabs