» » »

Rock Star Tabs (ver.1)

Artists:  A B C D E F G H I J K L M N O P Q R S T U V W X Y Z # 

Rock Star Tabs (ver.1)

Everclear
Rating:
0/5 (0 votes)

Tabs too difficult? Try these video lessons and learn fast.
                standard tuning (although some everclear songs since the "so much for the afterglow" 
album are about 20 cents sharp of standard according to my tuner, so experiment a little)
progression is simple and so is the rhythm (4/4 time)
verse moves in half steps and shifts up one whole step
in verse changes.  this is a good song so turn up the 
or comments.

-3-3-3-3-\-1-1-/-3-3-3-3------------------------------------------------------
-4-4-4-4-\-2-2-/-4-4-4-4------------------------------------------------------
-4-4-4-4-\-2-2-/-4-4-4-4------------------------------------------------------
                         repeat four times...                                 

-------------------------|-----------------------|----------------------------
-------------------------|-----------------------|----------------------------
-------3-4-4-5-6-6-5-4-4-|-----3-4-4-5-6-6-5-4-4-|-6-6-6-6-8-8-4-4------------
-4-4-4-3-4-4-5-6-6-5-4-4-|-4-4-3-4-4-5-6-6-3-4-4-|-6-6-6-6-8-8-4-4------------
-4-4-4-1-2-2-3-4-4-3-2-2-|-4-4-1-2-2-3-4-4-3-2-2-|-4-4-4-4-6-6-2-2------------
-2-2-2-------------------|-2-2-------------------|----------------------------
                        riff 1 (verses 1 and 2)   "i wanna be the guy that... 

---------1-1-1-1-4-4-4-4-2-2-2------------------------------------------------
-4-4-4-4-2-2-2-2-4-4-4-4-2-2-2------------------------------------------------
-4-4-4-4-2-2-2-2-2-2-2-2-2-2-2------------------------------------------------
-2-2-2-2----------------------------------------------------------------------
 "i just wanna be a rock star..."    bridge into solo 1                       

---------------------------|--------------------------------------------------
---------------------------|--------------------------------------------------
---------5-6-6-7-8-8-7-6-6-|---------5-6-6-7-8-8-7-6--------------------------
-6-6-6-6-5-6-6-7-8-8-7-6-6-|-6-6-6-6-5-6-6-5-8-8-7-6--------------------------
-6-6-6-6-3-4-4-5-6-6-5-4-4-|-6-6-6-6-3-4-4-5-6-6-5-4--------------------------
-4-4-4-4-------------------|-4-4-4-4------------------------------------------
 "that's why i wanna be a rock star..."  verse 3                              

-----------------------------|-----------------------------|------------------
-----------------------------|-----------------------------|------------------
---------7-8-8-9-10-10-9-8-8-|---------7-8-8-9-10-10-9-8-8-|------------------
-8-8-8-8-7-8-8-9-10-10-9-8-8-|-8-8-8-8-7-8-8-9-10-10-9-8-8-|------------------
-8-8-8-8-5-6-6-7-8--8--7-6-6-|-8-8-8-8-5-6-6-7-8--8--7-6-6-|------------------
-6-6-6-6---------------------|-6-6-6-6---------------------|------------------
 "i just wanna be a rock star...) verse 4                                     

-10-10-10-10-12-12-12-12-8-8-8-8----------------------------------------------
-10-10-10-10-12-12-12-12-8-8-8-8----------------------------------------------
-8--8--8--8--10-10-10-10-6-6-6-6----------------------------------------------
 "everybody everywhere wants to be famous..."                                 

--------------------------------------------------------------|---------------
--------------------------------------------------------------|---------------
----------------------------------------------8-8-8-8-6-6-6-6-|---------------
------------------------------8-8-8-8-6-6-6-6-8-8-8-8-6-6-6-6-|---------------
------------------------------8-8-8-8-6-6-6-6-6-6-6-6-4-4-4-4-|---------------
------------------------------6-6-6-6-4-4-4-4-----------------|---------------
 everybody everywhere can go to hell"                                         

-6-6-6-6-/-4-4-4-4-\-6-6-6-6--------------------------------------------------
-6-6-6-6-/-4-4-4-4-\-6-6-6-6--------------------------------------------------
-8-8-8-8-/-6-6-6-6-\-8-8-8-8--------------------------------------------------
                             finish on a Bb
            
Tabs too difficult? Try these video lessons and learn fast.




comments powered by Disqus
↑ Back to top | Tablatures and chords are parodies/interpretations of the original songs. You may use it for private study, scholarship, research or language learning purposes only