» » »

Promise Tabs (ver.1)

Artists:  A B C D E F G H I J K L M N O P Q R S T U V W X Y Z # 

Promise Tabs (ver.1)

Eve 6
Rating:
4/5 (9 votes)

Hard to play? Try these video lessons and learn fast.
                Im only 12 but ive been playing for 4 years and im 99 percent sure that these tabs 
r accurate. 
                        Verse
E-------------------------------------------------------------------
B-------------------------------------------------------------------
G-----------2-2-4-2--4-4-4--2-2-2-4-2-------------------------------
D--2-2-4-2--0-0-0-0--2-2-2--0-0-0-0-0-------------------------------
A--0-0-0-0----------------------------------------------------------
E-------------------------------------------------------------------

this is the little thingy in the middle of the 1st verse, 4th time 
and after the 1st chorus

E-------------------------------------------------------------------
B----------------------------------0--------------------------------
G-----------2-2-4-2--4-4-42----------2------------------------------
D--2-2-4-2--0-0-0-0--2-2-20-----4-----------------------------------
A--0-0-0-0----------------------------------------------------------
E-------------------------------------------------------------------

Pre chorus |and chorus 
E----------|--------------------------------------------------------
B----------|--------------------------------------------------------
G-777-777--|-----------77-xxxx--------------------------------------
D-777-777--|--77-xxxx--77-xxxx--22-xxxx-22-xxxx---------------------
A-555-555--|--77-xxxx--55-xxxx--22-xxxx-22-xxxx---------------------
E----------|--55-xxxx-----------00-xxxx-00-xxxx---------------------

here is another part of the chorus . First u play play that^ twice then this once

E-------------------------------------------------------------------
B-------------------------------------------------------------------
G---------77-xxxx---------------------------------------------------
D-77-xxxx-77-xxxx-2-xxxx--44-xxxx-----------------------------------
A-77-xxxx-55-xxxx-2-xxxx--44-xxxx-----------------------------------
E-55-xxxx---------0-xxxx--22-xxxx-----------------------------------

Then this one. that is the whole chorus 
E-------------------------------------------------------------------
B-------------------------------------------------------------------
G------77-----------------------------------------------------------
D-77---77----22----2------------------------------------------------
A-77---55----22----2------------------------------------------------
E-55---------00----0------------------------------------------------

Interlude play this six times

E-------5---------5-----------5---------5---------------------------
B-----5---------5---5-------5---------5---5-------------------------
G-------------------------------------------------------------------
D--4-------0-------------2--------0---------------------------------
A-------------------------------------------------------------------
E-------------------------------------------------------------------

After the interlude u play something a bit like the pre-chorus for a 
second or 2 then u play this, its kind riff where they r getting ready 
for the chorus and Max Collins (the singer) is  making noises like eeeeaaaahh. 
its kind of like they r phsyching up for the chorus u play this twice.

E-------------------------------------------------------------------
B-------------------------------------------------------------------
G-------77----------------------------------------------------------
D--77---77---22---22------------------------------------------------
A--77---55---22---22------------------------------------------------
E--55--------00---00------------------------------------------------

After this^ is the chorus but after the chorus is an outro the same as 
the riff above. At the very end they play this once

E--------------------------------------------
B--------------------------------------------
G--7-----------------------------------------
D--7-77777-77777-----------------------------
A--5-77777-77777-----------------------------
E----55555-55555------------------------------

or comments.
            
Hard to play? Try these video lessons and learn fast. | Correct




comments powered by Disqus
↑ Back to top | Tablatures and chords are parodies/interpretations of the original songs. You may use it for private study, scholarship, research or language learning purposes only