» » »

Trading My Sorrows Bass tabs (ver.2)

Artists:  A B C D E F G H I J K L M N O P Q R S T U V W X Y Z # 

Trading My Sorrows Bass tabs (ver.2)

Evans Darrell
Rating:
0/5 (0 votes)

Hard to play? Try these video lessons and learn fast.
                Intro & Verse 
G:|6-6-11--11-14-14-13--13-6-6-11--11-14-14-16--16-|
D:|------------------------------------------------|
A:|------------------------------------------------|
E:|5-5-10--10-14-14-12--12-5-5-10--10-14-14-16--16-|

G:|18-18-11--11-14-14-13--13-6-6-11--11-14-14-13--13-|
D:|--------------------------------------------------|
A:|--------------------------------------------------|
E:|17-17-10--10-14-14-12--12-5-5-10--10-14-14-12--12-|

Pre-Chorus.
G:|-------------------------|
D:|-------------------------|
A:|----------------5-5-5----|
E:|0--5-5-5-0--3----------3-|

Chorus 
G:|----------------------|
D:|----------------------|
A:|------5--5------------|
E:|5--5--------2--2--0--0|

Solo
G:|---------9---11h9--------|
D:|---9h11------------11h9--|
A:|7-----------------------7|
E:|-------------------------|
            
Hard to play? Try these video lessons and learn fast. | Correct




comments powered by Disqus
↑ Back to top | Tablatures and chords are parodies/interpretations of the original songs. You may use it for private study, scholarship, research or language learning purposes only