» » »

Bring Me To Life Bass tabs (ver.2)

Artists:  A B C D E F G H I J K L M N O P Q R S T U V W X Y Z # 

Bring Me To Life Bass tabs (ver.2)

Evanescence
Rating:
0/5 (0 votes)

Hard to play? Try these video lessons and learn fast.
                Evanescence – Bring Me To Life
Drop D Tuning

We're doing this song at school and we needed the bass tabs but they were cr*p, so i 
improvised by just playing the bass note of each power chord, the way i play it on guitar. 
not a bassist, so i dont really know much, so just a reminder that this is an improvisation.

Feedback appreciated.

Intro/Verse 1:
G|---------------------------------------------------------------------------|
D|---------------------------------------------------------------------------|
A|---------------------------------------------------------------------------|
D|---------------------------------------------------------------------------|
How can you see into my eyes like open doors?
Leading you down into my core where I've become so numb

Verse 1:
G|-------------------------------------------|------------------------------------------|
D|-------------------------------------------|------------------------------------------|_x2
A|-------------------------------------------|-3-3--3-3--3-3--3-3---3-3--3-3--3-3--3-3--|
D|--2-2--2-2--2-2--2-2---2-2--2-2--2-2--2-2--|------------------------------------------|
Without a soul
My spirit's sleeping somewhere cold
Until you find it there and lead it back home

Chorus:
G|-----------------------------------------------------------------------|----------------------|
D|-----------------------------------------------------------------------|----------------------|
A|------------------5-5-5-5-----------------------------5-5-5-5----------|----------------------|
D|--2-2-2-2-5-5-5-5---------2-2-2-2-0---2-2-2-2-5-5-5-5---------2-2-2-2--|--2-2--2-2--2-2--2-2--|
(Wake me up) Wake me up inside
(I can't wake up) Wake me up inside
(Save me) Call my name and save me from the dark
(Wake me up) Bid my blood to run
(I can't wake up) Before I come undone
(Save me) Save me from the nothing I've become

Verse 2: _x2
G|----------------------------------------------------|----------------------------------------------------|
D|----------------------------------------------------|----------------------------------------------------|
A|----------------------------------------------------|-3-3--3-3--3-3--3-3--3-3---3-3--3-3--3-3--3-3--3-3--|
D|--2-2--2-2--2-2--2-2--2-2---2-2--2-2--2-2--2-2--2-2-|----------------------------------------------------|
Now that I know what I'm without
You can't just leave me
Breathe into me and make me real
Bring me to life

Chorus:
G|---------------------------------------------------------------------------|
D|---------------------------------------------------------------------------|
A|------------------5-5-5-5-----------------------------5-5-5-5--------------|
D|--2-2-2-2-5-5-5-5---------2-2-2-2-0---2-2-2-2-5-5-5-5---------2-2-2-2------|
(Wake me up) Wake me up inside
(I can't wake up) Wake me up inside
(Save me) Call my name and save me from the dark
(Wake me up) Bid my blood to run
(I can't wake up) Before I come undone
(Save me) Save me from the nothing I've become

Interlude:
G|-----------------------------------------------------------------|      |-------------|
D|-----------------------------------------------------------------|_X2   |-------------|
A|--3-3-3-3-X-X-3-3/5-5-5-5-X-X------------------------------------| THEN |-------------|
D|------------------------------2-2--2-2--2-2--2-2--2-2--2-2--2-2--|      |--2-4-5-9-7--|
Bring me to life
I've been living a lie
There's nothing inside
Bring me to life

Bridge:
G|-----------------------------------------------------------------------------------------|
D|-----------------------------------------------------------------------------------------|
A|--------------------------2-2-2-2-2---------------------------------------2-2-2-2-2---2--|
D|--7-7-7-7-7---2-2-2-2-2---------------2-4-5-9-7---7-7-7-7-7---2-2-2-2-2------------------|
Frozen inside without your touch
Without your love, darling
Only you are the life among the dead

Verse 3: _x2
G|----------------------------------------------------|----------------------------------------------------|
D|----------------------------------------------------|----------------------------------------------------|
A|----------------------------------------------------|-3-3--3-3--3-3--3-3--3-3---3-3--3-3--3-3--3-3--3-3--|
D|--2-2--2-2--2-2--2-2--2-2---2-2--2-2--2-2--2-2--2-2-|----------------------------------------------------|
All this time, I can't believe I couldn't see
Kept in the dark, but you were there in front of me
I've been sleeping a thousand years it seems
Got to open my eyes to everything
Without a thought, without a voice, without a soul
Don't let me die here
There must be something more
Bring me to life

Chorus:
G|--------------------------------------------------------------|
D|--------------------------------------------------------------|
A|------------------5-5-5-5----------------------------5-5-5-5--|
D|--2-2-2-2-5-5-5-5---------x-x-x-x-x--2-2-2-2-5-5-5-5----------|
(Wake me up) Wake me up inside
(I can't wake up) Wake me up inside
(Save me) Call my name and save me from the dark
(Wake me up) Bid my blood to run
(I can't wake up) Before I come undone

G|-----------------------------------------------|
D|-----------------------------------------------|
A|--5-5-5-5-5-5-5-5-----0------------------------|
D---------------------------2---4-----5---9---7--|
(Save me) Save me from the no-thing I've be-come

Outro:
G|---------------------------------------------------------|
D|---------------------------------------------------------|
A|---------------------------------------------------------|
D|--7-7-7-7--5-5-5-5--2-2--2-2--2-2--2-2--2-2---2-4-5-9-7--|
Bring me to life
I've been living a lie
There's nothing inside

G|------------------------------------|
D|------------------------------------|
A|--------------3-3-3---5-5-5---------|
D|--7-7-7-7-7-------------------2~~~--|
Bring           me       to   life...
            
Hard to play? Try these video lessons and learn fast. | Correct




comments powered by Disqus
↑ Back to top | Tablatures and chords are parodies/interpretations of the original songs. You may use it for private study, scholarship, research or language learning purposes only