» » »

Evan And Jaron, Where Were You Tabs (ver.1)

Artists:  A B C D E F G H I J K L M N O P Q R S T U V W X Y Z # 

Where Were You Tabs (ver.1)

Evan And Jaron Tabs
Rating:
0/5 (0 votes)
Where Were You lessons Tabs too difficult? Try these video lessons and learn fast
                
This is my first tab so bear with me..

Tuning: eBGDAE (Standard)

(Listen to the song for the strumming pattern)

Verse 1-

      G        Em7      Cadd9       D
e|----3----|----0----|----x----|----x----|
B|----2----|----2----|----3----|----x----|
G|----0----|----2----|----2----|----0----|
D|----0----|----0----|----0----|----2----|
A|----3----|----3----|----3----|----3----|
E|----3----|----3----|----3----|----2----|
 Softly..   hear you.. Surely.. after it all

Repeat with verse 2 lyrics

Chorus-
    Cadd9          G
e|-----x-----|-----3-----|
B|-----3-----|-----2-----|
G|-----2-----|-----0-----|
D|-----0-----|-----0-----|
A|-----3-----|-----3-----|
E|-----3-----|-----3-----|
Where were..   Naked in..

Bridge-

     Em7        G
e|----0----|----3----|
B|----2----|----2----|
G|----2----|----0----|
D|----0----|----0----|
A|----3----|----3----|
E|----3----|----3----|
The train.. left the..
Repeat 3 times

      Em7           Cadd9           D
e|------0------|------x------|------x------|
B|------2------|------3------|------x------|
G|------2------|------2------|------0------|
D|------0------|------0------|------3------|
A|------3------|------3------|------2------|
E|------3------|------3------|------3------|
 it's too..     Ive already.. Ticket stand

Repeat Chorus
Repeat Verse one

Bridge 2

    Cadd9                  G
e|--------x--------|--------3--------|
B|--------3--------|--------2--------|
G|--------2--------|--------0--------|
D|--------0--------|--------0--------|
A|--------3--------|--------3--------|
E|--------3--------|--------3--------|
  Theres something 

    Cadd9                 G
e|--------x--------|--------3--------|
B|--------3--------|--------2--------|
G|--------2--------|--------0--------|
D|--------0--------|--------0--------|
A|--------3--------|--------3--------|
E|--------3--------|--------3--------|
 Really think you..   know

    Cadd9                  G
e|--------x--------|--------3--------|
B|--------3--------|--------2--------|
G|--------2--------|--------0--------|
D|--------0--------|--------0--------|
A|--------3--------|--------3--------|
E|--------3--------|--------3--------|
Its building up      inside

      Cadd9                 G
e|--------x--------|--------3--------|
B|--------3--------|--------2--------|
G|--------2--------|--------0--------|
D|--------0--------|--------0--------|
A|--------3--------|--------3--------|
E|--------3--------|--------3--------|
  Where'd you            go

Repeat chorus.


| /  slide up
| \  slide down
| h  hammer-on
| p  pull-off
| ~  vibrato
| +  harmonic
| x  Mute note
            

comments powered by Disqus
↑ Back to top | Evan And Jaron Tabs for Where Were You. Lyrics for acoustic guitar and electric guitar. Tablatures and chords are parodies/interpretations of the original songs. You may use it for private study, scholarship, research or language learning purposes only