>
 >
My Girl

My Girl Guitar Tabs

Evan And Jaron - My Girl chords, tabs, tablatures, lyrics

Guitar lessons | Add/correct | Request | Top 50 tabs Artists:  A B C D E F G H I J K L M N O P Q R S T U V W X Y Z 0-9

My Girl Guitar Tabs – Evan And Jaron

CD, Sheet music, Poster

Do you like My Girl? Share with your friends now
Tabs
E--3---3-3--3-3-3--3--3--3----3-----3-3--3-3--3-------------------------------
B--3---3-3--3-3-3--3--3--3----3-----3-3--3-3--3-------------------------------
G--0---0-0--0-0-0--2--2--0----0(x3)-2-2--0-0--0-------------------------------
D--0---0-0--2-2-2--0--0--0----2-----0-0--0-0--2-------------------------------
A--2---2-2--3-3-3--0--0--2----3-----0-0--2-2--3-------------------------------
E--3---3-3--0-0-0--3--3--3----0-----3-3--3-3--0-------------------------------

E--3-------3------3---3-----3-----3-----33--33-3--3--3--3--3------------------
B--3-------3------3---3-----3-----3-----33--33-3--3--3--3--3------------------
G--0-(x2)--2-(x3)-0---0(x2)-2(x4)-0-----00--22-0--0--2--2--0------------------
D--0-------0------0---0-----0-----0-----22--00-0--0--0--0--0------------------
A--2-------0------2---2-----0-----2-----33--00-2--2--0--0--2------------------
E--3-------3------3---3-----3-----3-----00--33-3--3--3--3--3------------------

E-2-----0------3-3--3---3-3--3-3-3--3--3-3-3-3-3--0-3-----------------
B-3-----3------3-3--3---3-3--1-1-1--0--0-0-0-1-1--1-0-----------------
G-2(x4)-2(x3)--0-0--2---0-0--0-0-0--0--0-0-0-0-0--0-0-----------------
D-x-----2------0-0--0-------------------------------------------------
A-x-----0------2-2--0-------------------------------------------------
E-x-----0------3-3--3-------------------------------------------------


E-3-----3-3--3-3--3-----3---3-3--3-----3-3--3-3--3---3-3--3--3-3--3-3-3-------
B-3-----3-3--3-3--3-----3---3-3--3-----3-3--3-3--3---3-3--3--3-3--3-3-3-------
G-0(x3)-2-2--0-0--2(x3)-0---0-0--2(x3)-0-0--2-2--0---0-0--2--0-0--2-2-0-------
D-0-----0-0--2-2--0-----0---0-0--0-----2-2--0-0--0---0-0--0--2-2--0-0-0-------
A-2-----0-0--3-3--0-----0---0-0--0-----3-3--0-0--0---0-0--0--3-3--0-0-0-------
E-3-----3-3--0-0--3-----3---3-3--3-----0-0--3-3--3---3-3--3--0-0--3-3-3-------

E-3-----3-----3---3-----3-3--3------------------------------------------
B-3-----3-----3---3-----3-3--3------------------------------------------
G-0(x3)-2(x3)-0---0(x3)-2-2--0------------------------------------------
D-0-----0-----2---2-----0-0--0------------------------------------------
A-0-----0-----3---3-----0-0--0------------------------------------------
E-3-----3-----0---0-----3-3--3------------------------------------------

E--3-3--3-----3---3-3--3-3--3---3-3--3-3--3----3-3-3---3---3--3--3--3-3--3--3-----------------
B--3-3--3-----3---3-3--3-3--3---3-3--3-3--3----3-3-3---3---3--3--3--3-3--2--3-----------------
G--0-0--2(x4)-0---0-0--2-2--0---0-0--2-2--0----0-0-0---2---0--0--2--0-0--0--0-----------------
D--0-0--0-----0---2-2--0-0--0---0-0--0-0--2----2-2-2---0---0--0--0--0-0--0--0-----------------
A--2-2--0-----0---3-3--0-0--2---2-2--0-0--3----3-3-3---0---2--2--0--2-2--0--2-----------------
E--3-3--3-----3---0-0--3-3--3---3-3--3-3--0----0-0-0---3---3--3--3--3-3--3--3-----------------

E-3-----3---3--3----3--3---3-3---3--3--------------------------------------
B-3-----3---3--3----3--3---3-3---3--3--------------------------------------
G-0(x2)-2---0--0----2--0---0-0---2--0--------------------------------------
D-0-----0---2--2----0--0---0-0---0--0--------------------------------------
A-2-----0---3--3----0--2---2-2---0--0--------------------------------------
E-3-----3---0--0----3--3---3-3---3--3--------------------------------------

E-3-----3-----3---3-----3-----3---3----3-----3---3-3----3--------------------
B-3-----3-----3---3-----3-----3---3----3-----3---3-3----3--------------------
G-0(x3)-2(x2)-0---0-----2(x2)-0---0(x2)2(x2)-0---0-2(x3)0--------------------
D-0-----0-----0---0(x2)-0-----0---0----0-----0---0-0----0--------------------
A-2-----0-----0---0-----0-----0---0----0-----2---2-0----0--------------------
E-3-----3-----3---3-----3-----3---3----3-----3---3-3----3--------------------

E-3----3----3--3----3----3---------------------------------------------
B-3----3----3--3----3----3---------------------------------------------
G-0(x3)2(x2)0--0(x2)2(x3)0---------------------------------------------
D-0----0----2--2----0----2---------------------------------------------
A-0----0----3--3----0----3---------------------------------------------
E-3----3----0--0----3----0---------------------------------------------

E-3----33--3--3-3--3-----3---3-3--3-3-3-3---3----3----3---3----3----3----------
B-3----33--3--3-3--3-----3---3-3--1-0-1-0---3----3----3---3----3----3----------
G-0(x3)22--0--0-0--2(x3)-0---0-0--0-0-0-0---0(x3)2(x3)0---0(x2)2(x2)0----------
D-0----00--0--0-0--0-----0------------------2----0----0---0----0----0----------
A-2----00--0--0-0--0-----0------------------3----0----0---0----0----2----------
E-3----33--3--3-3--3-----3------------------0----3----3---3----3----3----------

E-3----3----3----3--3----3----3----33----3--3-3---3--3-3---3-3--------------
B-3----3----3----3--3----3----3----33----3--3-3---3--3-3---3-3--------------
G-0(x2)2(x3)0----0--2(x2)0----2(x2)00----2--0-0---2--0-0---2-0--------------
D-0----0----0----0--0----0----0----00----0--0-0---0--0-0---0-0--------------
A-2----0----0----0--0----0----0----22----0--2-2---0--2-2---0-2--------------
E-3----2----3----3--3----3----3----33----3--3-3---3--3-3---3-3--------------

E-3----3-----3----3----3-----2------0--0--22--3-------------------------
B-3----3-----3----3----3-----3(x3)--3--3--33--3-------------------------
G-0(x2)0(x3)-2(x4)0----0(x2)-2------2--2--22--0-------------------------
D-0----2-----0----0----0------------2--2------0-------------------------
A-2----3-----0----0----0----------------------0-------------------------
E-3----0-----3----3----3----------------------3-------------------------

E-3-----3-----3---3-----3-----3---3----3-----3---3-3----3--------------------
B-3-----3-----3---3-----3-----3---3----3-----3---3-3----3--------------------
G-0(x3)-2(x2)-0---0-----2(x2)-0---0(x2)2(x2)-0---0-2(x3)0--------------------
D-0-----0-----0---0(x2)-0-----0---0----0-----0---0-0----0--------------------
A-2-----0-----0---0-----0-----0---0----0-----2---2-0----0--------------------
E-3-----3-----3---3-----3-----3---3----3-----3---3-3----3--------------------

E-3----3----3--3----3----3---------------------------------------------
B-3----3----3--3----3----3---------------------------------------------
G-0(x3)2(x2)0--0(x2)2(x3)0---------------------------------------------
D-0----0----2--2----0----2---------------------------------------------
A-0----0----3--3----0----3---------------------------------------------
E-3----3----0--0----3----0---------------------------------------------

E-3--3----3---3-----3--------------3--------------
B-3--3----3---3-----3-------------3---------------
G-0--2(x4)0---0(x2)-2(x2)--------0----------------
D-0--0----0---0-----0-----------0-----------------
A-2--0----2---2-----0----------0------------------
E-3--3----3---3-----3---------3-------------------

Intro:
My life is bad for right now
im without you your without me
oh baby why cant you see you're the only one for me
so come talk to me its been a while
ill say a funny joke and make you smile
so dont leave me alone i wanna stay a while
because all these other girls keep talkin' to me
sayin come on lets go out to the show
i say no please dont bother me
im in love with a girl oh how i love that girl

Chorus:
When she stares into my eyes, she thinks their lies 
there's a good chance that you wont be surprised
that I    love you I need you I want you
do you   love me do you   need me do you want me
cause your the only girl in this whole wide world
who can make me smile.......and once in a while
i'll sit and dream of you...i know your true


Ending:
my life is getting there
now your talking to me
and you made me happy
but i hate walking alond, so i turned to you
you said alright lets go out to the show
hand in hand we'll gooooo we'll run we'll hide 
but i know how i fell about you

chorus:(starting at)
cause your the only girl in the whole wide world
who can make me smile.....and once in a while 
i'll sit and dream of you...i know your true

(ends with)
just give me once more sign
and ill try to make you mine............





Comments


Popular Evan And Jaron tabs & chords
Another Mistake Chords
Crazy For This Girl 1 Chords
Crazy For This Girl 2 Chords
Outerspace Chords
The Distance Chords
The Distance 2 Chords
Through The Blue Chords
From My Head To My Heart Ukulele
Through The Blue Ukulele
What She Likes Ukulele


Song lyrics



↑ Back to top | Tablatures and chords are parodies/interpretations of the original songs. You may use it for private study, scholarship, research or language learning purposes only
© 2014 AZChords.com Contact us | Privacy policy | DMCA | Add/correct tabs | Request tabs | Top 50 tabs