» » »

Evan And Jaron, I Could Fall Tabs (ver.1)

Artists:  A B C D E F G H I J K L M N O P Q R S T U V W X Y Z # 

I Could Fall Tabs (ver.1)

Evan And Jaron Tabs
 Rating:
4/5 (4 votes)
I Could Fall lessons Tabs too difficult? Try these video lessons and learn fast
                
Evan & Jaron
?I Could Fall?


Standard tuning.  No capo.  The real song is played almost entirely
on the piano, so I encountered some inaccuracies in transcribing
the music from one instrument to another.  But it sounds cool anyway.
This is a great song, and even though I am not the biggest Evan and
Jaron fan, it?s well written with good lyrics, sounds nice on guitar,
and is fairly easy to play.  I hope someone wants to learn it!
[You REALLY have to listen to the song to get the timing right, or
this won?t sound like much of anything.]

Intro:

e|-----------------|
B|-2-h3-p2-p0-00000|
G|-----------------|
D|-----------------|
A|-2---------2-----|
E|-----------------|

Now play the following four times:

e|----------------|----------------|-------------------|
B|-2-h3-p2-p0-0---|-2-h3-p2-p0-0---|-2-h3-p2--0-0-0----|
G|----------------|----------------|-------------------|
D|----------------|----------------|-------------------|
A|-2---------2----|-0---------0----|----------------0--|
E|----------------|----------------|-3---------3-3-3---|

G
Nobody could hurt me

     A
like I know she could hurt me

            G               D                 E
but there's nothing in this world that I want more.

G
Nobody could take me


       A
to the places that she takes me

G
Places that I've


D
never been

   E
before.

        C
With my eyes wide open

C7no5
knowing full well

I could

fall. . .          from . . .       heaven. . .
e|----------------|----------------|-------------------|
B|-2-h3-p2-p0-0---|-2-h3-p2-p0-0---|-2-h3-p2--0-0-0----|
G|----------------|----------------|-------------------|
D|----------------|----------------|-------------------|
A|-2---------2----|-0---------0----|----------------0--|
E|----------------|----------------|-3---------3-3-3---|

(I could) fall..   from  . . .      heaven. . .
e|----------------|----------------|-------------------|
B|-2-h3-p2-p0-0---|-2-h3-p2-p0-0---|-2-h3-p2--0-0-0----|
G|----------------|----------------|-------------------|
D|----------------|----------------|-------------------|
A|-2---------2----|-0---------0----|----------------0--|
E|----------------|----------------|-3---------3-3-3---|

I could fall       I could brake    that's the chance that I take
e|----------------|----------------|-------------------|
B|-2-h3-p2-p0-0---|-2-h3-p2-p0-0---|-2-h3-p2--0-0-0----|
G|----------------|----------------|-------------------|
D|----------------|----------------|-------------------|
A|-2---------2----|-0---------0----|----------------0--|
E|----------------|----------------|-3---------3-3-3---|

        D
I could fall?

G
Look at me I'm flying,
       A           A6        A
just a breath away from dying

G             D               E   Eadd9   E
Holding on to her and letting go.

     G
As I walk across this wire

  A
above a lake of fire

    G             D                   E     Eadd9    E
And lean into the wind that starts to blow
        C
With my eyes wide open

C7no5
knowing full well

I could

fall. . .          from . . .       heaven. . .
e|----------------|----------------|-------------------|
B|-2-h3-p2-p0-0---|-2-h3-p2-p0-0---|-2-h3-p2--0-0-0----|
G|----------------|----------------|-------------------|
D|----------------|----------------|-------------------|
A|-2---------2----|-0---------0----|----------------0--|
E|----------------|----------------|-3---------3-3-3---|

(I could) fall..   from  . . .      heaven. . .
e|----------------|----------------|-------------------|
B|-2-h3-p2-p0-0---|-2-h3-p2-p0-0---|-2-h3-p2--0-0-0----|
G|----------------|----------------|-------------------|
D|----------------|----------------|-------------------|
A|-2---------2----|-0---------0----|----------------0--|
E|----------------|----------------|-3---------3-3-3---|

I could fall       I could brake    that's the chance that I take
e|----------------|----------------|-------------------|
B|-2-h3-p2-p0-0---|-2-h3-p2-p0-0---|-2-h3-p2--0-0-0----|
G|----------------|----------------|-------------------|
D|----------------|----------------|-------------------|
A|-2---------2----|-0---------0----|----------------0--|
E|----------------|----------------|-3---------3-3-3---|

        D    Dsus4  D   Dsus2  Dsus4  D(pick out & linger on this final D chord.)
I could fall.

     A
Do I hide my heart?

     E
Do I lock my door?

     Am
Do I tear it out

            G
so it don't feel no more?

      A       Asus4       C      Csus4
No, I risk it all knowing that I could


(play this just like the previous 2 times)
fall from heaven
I could fall from heaven
I could fall
I could fall
I could fall
I could fall
Fall, fall


Somewhat non-traditional chords:

Eadd9
[ 0 2 2 1 0 2 ]

A6
[ x 0 2 2 2 2 ]

C7no5
[ x 3 2 3 1 0 ]

Dsus2
[ x x 0 2 3 0 ]

Dsus4
[ x x 0 2 3 3 ]

Asus4
[ x 0 0 2 2 0 ]

Csus4
[ x 3 3 0 1 0 ]

corrections.  It's my first tab, and I'd like to improve it.
            
Submit corrections

comments powered by Disqus
↑ Back to top | Evan And Jaron Tabs for I Could Fall. Lyrics for acoustic guitar and electric guitar. Tablatures and chords are parodies/interpretations of the original songs. You may use it for private study, scholarship, research or language learning purposes only