» » »

Torn Bass tabs (ver.1)

Artists:  A B C D E F G H I J K L M N O P Q R S T U V W X Y Z # 

Torn Bass tabs (ver.1)

Euphony
Rating:
0/5 (0 votes)

Hard to play? Try these video lessons and learn fast.
                Riff 1:
g:-----------------------|
d:----------------------3|
a:--------6-------0-3-5--|
e:--0-3-6-----1----------|
a:5----------------------|


Riff 2:
g:-----------------------------------------------------------------------------------------------------|
d:-----------------------------------------------------------------------------------------------------|
a:-------------------------------------------------8---------------------------------------------------|
e:-----------------------------------------------8---8-------------------------------------------------|
a:5-5-6-6-6-6-10-8-8-8-8-10-8-5-5-6-6-6-6-6-10-8-------5-5-6-6-6-6-6-10-8-8-12-10-8-5-5-6-6-6-6-10-8-8/|

Riff 3:
g:---------------------------------------------|
d:---------------------------------------------|
a:---------------------------------------------|
e:---------------------------------------------|
a:5-6-6-6-6-3-3-1-1-1-1-5-5-6-6-6-6-3-3-1-1-1-1|
            
Hard to play? Try these video lessons and learn fast. | Correct




comments powered by Disqus
↑ Back to top | Tablatures and chords are parodies/interpretations of the original songs. You may use it for private study, scholarship, research or language learning purposes only