>
 >
Prism

Prism Bass Tabs

Euphony - Prism chords, tabs, tablatures, lyrics

Guitar lessons | Add/correct | Request | Top 50 tabs Artists:  A B C D E F G H I J K L M N O P Q R S T U V W X Y Z 0-9

Prism Bass Tabs – Euphony

CD, Sheet music, Poster

Do you like Prism? Share with your friends now
Bass Tabs
Tunning:Standard 5-B,E,A,D,G

Guitar Intro

Riff A:
G:----6---6-------6---6--|
D:--6---6---6---6---6---6|
A:4-----------4----------|
E:-----------------------|
B:-----------------------|


Riff B:
G:--6h7-6----6h7-6-6h7-6----6h7-6----6h7-6----|
D:-----------------------------------------6-6|
A:4-------4--------------4--------4-----------|
E:--------------------------------------------|
B:--------------------------------------------|


Riff C:
G:-------------------------------------|
D:----------------------------------6-6|
A:4-4h5-4-4h5-4h5-4-4-4h5-4-4-4h5-4----|
E:-------------------------------------|
B:-------------------------------------|


Riff D:(When it gets harder)
G:--------------------------------------------------------------------------------|
D:--------------------------------------------------------------------------------|
A:--------------------------------------5---5--------4----4----------5----5-------|
E:2-------2-------2-------2-------2------------2--------------2--------------2----|
B:--5-3-----5-2-----5-3-----5-2-----5-3---3------5-2---2--------5-3----3-------5-2|


Bridge 1:
g:-----------------------------------------------|
d:-----------------------------------------------|
a:----4---4-------7---7-------4---4-------9-----7|
e:--4---4---4---7---7---7---4---4---4---9-----7--|
b:2-----------5-----------2-----------7-----5----|


Bridge 2:
g:----------------------------|
d:----------------------------|
a:----------------------------|
e:----------------------------|
b:2-------5------2-------7-5-4|


Bass Solo:
G:-------------------------------|
D:-------------------------------|
A:--4h5-4-2---2-4---4h5-4-2------|
E:----------4---------------5-4--|
B:2---------------2-------------5|X4

Bass Solo 2:
  s-s---p-sp---s-s---sss-s--s---p-s-p--s--s-----p-s-p|
G:----------------------------------------------6---7|
D:------2---4--------2x2--------2---4----------------|
A:--2h4---4------2h4-2x2----2h4---4-------0h4-----x--|
E:---------------------------------------------------|
B:2------------2---------2-------------2-------------|X4

Bass Solo 3:
G:-----------------------|
D:-----------------------|
A:----4---4-------4---4--|
E:--4---4---4---4---4---4|
B:2-----------2----------|


Then Riffs A & B just run a octave deeper for the rest of the song then back to 
riff D & end on Riff D.





Comments


Popular Euphony tabs & chords
Bass-Ikly Bass Tabs
Intake Bass Tabs
Keychain Bass Tabs
Torn Bass Tabs


Song lyrics



↑ Back to top | Tablatures and chords are parodies/interpretations of the original songs. You may use it for private study, scholarship, research or language learning purposes only
© 2014 AZChords.com Contact us | Privacy policy | DMCA | Add/correct tabs | Request tabs | Top 50 tabs