» » »

Euphony, Keychain Bass tabs (ver.1)

Artists:  A B C D E F G H I J K L M N O P Q R S T U V W X Y Z # 

Keychain Bass tabs (ver.1)

Euphony Tabs
 Rating:
4/5 (4 votes)
Keychain lessons Tabs too difficult? Try these video lessons and learn fast
                Music:Jorelle Gates

Tunning:E,A,D,G

Intro/Riff 1:
--s-s--ss-ps-p-s-s--s-ps-p--|
g:--------9--7--------9--7h9|
d:--------------------------|
a:--0h7xx--x-----0h7x--x----|
e:0--------x---0-------x----|

Fill: (only done at the end of the intro & the very end)
g:----9-----9------9-----9-----9|
d:------------------------------|
a:0h7---0h7---0h7----0h7---0h7--|
e:------------------------------|



Riff 2:
g:-------------------------------------|
d:-------------------------------------|
a:------------------3-3-3-3-3-5-5-5-5-5|
e:5-5-5-5-3-3-3-3-3--------------------|


Riff 3:
g:-----------------------------------------|
d:-----------------------------------------|
a:----8-7-5-5-5-5-5-5-----6-5-3-3-3-3-3-3-2|
e:5-5-----------------3-3------------------|


Riff 4:
g:--------------------------------------------|
d:----10-9-7-7-7-7-7-7-----7---7--------------|
a:7-7------------------5-5---8---8h10-10-10-10|
e:--------------------------------------------|
            
Submit corrections

comments powered by Disqus
↑ Back to top | Euphony Bass for Keychain. Lyrics for acoustic guitar and electric guitar. Tablatures and chords are parodies/interpretations of the original songs. You may use it for private study, scholarship, research or language learning purposes only