>
 >
Intake

Intake Bass Tabs

Euphony - Intake chords, tabs, tablatures, lyrics

Guitar lessons | Add/correct | Request | Top 50 tabs Artists:  A B C D E F G H I J K L M N O P Q R S T U V W X Y Z 0-9

Intake Bass Tabs – Euphony

CD, Sheet music, Poster

Do you like Intake? Share with your friends now
Bass Tabs
Riff 1:
g:-------------------------|
d:-------------------------|
a:-------------------------|
e:----2-2--2-2-----2-2--2-2|
b:1-1----------1-1---------|

Riff 2:
g:-----------------------------|
d:-----------------------------|
a:-----------------------------|
e:2/8-8-2-2--2-2-2/8-8-2-2--2-2|
b:-----------------------------|

Riff 3:
g:------------------------|
d:------------------------|
a:--3---0-1-2----3--------|
e:----2------------2-5-4-2|
b:1-----------1-----------|

riff 4:
g:-------------------------------------------------|
d:-------------------------------------------------|
a:------------------------------------4h6-6h8-8-8-8|
e:----4-4-4-4-----1-1-1-1-----4-4-4-4--------------|
b:1-1---------4-4---------1-1----------------------|

End:
g:---------------------------------------------|
d:---------------------------------------------|
a:---------------------------------------------|
e:----2-2--2-2------2-2--2-2-----2-2--2-2-----2|
b:1-1----------1-1-----------1-1----------1-1--|





Comments


Popular Euphony tabs & chords
Bass-Ikly Bass Tabs
Keychain Bass Tabs
Prism Bass Tabs
Torn Bass Tabs


Song lyrics



↑ Back to top | Tablatures and chords are parodies/interpretations of the original songs. You may use it for private study, scholarship, research or language learning purposes only
© 2014 AZChords.com Contact us | Privacy policy | DMCA | Add/correct tabs | Request tabs | Top 50 tabs